ISO-10303-21;
HEADER;
FILE_DESCRIPTION (( 'STEP AP203' ),
    '1' );
FILE_NAME ('bcbc.STEP',
    '2023-02-12T11:18:40',
    ( '' ),
    ( '' ),
    'SwSTEP 2.0',
    'SolidWorks 2019',
    '' );
FILE_SCHEMA (( 'CONFIG_CONTROL_DESIGN' ));
ENDSEC;

DATA;
#1 = DIRECTION ( 'NONE',  ( 0.000000000000000000, 0.000000000000000000, 1.000000000000000000 ) ) ;
#2 = ADVANCED_FACE ( 'NONE', ( #58 ), #113, .T. ) ;
#3 = APPLICATION_PROTOCOL_DEFINITION ( 'international standard', 'config_control_design', 1994, #198 ) ;
#4 = DIRECTION ( 'NONE',  ( 1.000000000000000000, 0.000000000000000000, 0.000000000000000000 ) ) ;
#5 = CARTESIAN_POINT ( 'NONE',  ( 0.000000000000000000, 0.000000000000000000, 5.000000000000000000 ) ) ;
#6 = PERSON_AND_ORGANIZATION ( #161, #114 ) ;
#7 = COORDINATED_UNIVERSAL_TIME_OFFSET ( 1, 0, .AHEAD. ) ;
#8 = APPLICATION_PROTOCOL_DEFINITION ( 'international standard', 'config_control_design', 1994, #132 ) ;
#9 = DIRECTION ( 'NONE',  ( 0.000000000000000000, 0.000000000000000000, 1.000000000000000000 ) ) ;
#10 = EDGE_CURVE ( 'NONE', #100, #145, #131, .T. ) ;
#11 = ORIENTED_EDGE ( 'NONE', *, *, #254, .T. ) ;
#12 = PERSON_AND_ORGANIZATION ( #161, #114 ) ;
#13 = AXIS2_PLACEMENT_3D ( 'NONE', #173, #214, #98 ) ;
#14 = ORIENTED_EDGE ( 'NONE', *, *, #125, .F. ) ;
#15 = EDGE_LOOP ( 'NONE', ( #14, #155, #29, #181 ) ) ;
#16 = VECTOR ( 'NONE', #25, 1000.000000000000000 ) ;
#17 = VERTEX_POINT ( 'NONE', #138 ) ;
#18 = APPROVAL ( #232, 'NEURÈENÝ' ) ;
#19 = DIRECTION ( 'NONE',  ( -0.000000000000000000, -0.000000000000000000, -1.000000000000000000 ) ) ;
#20 = CARTESIAN_POINT ( 'NONE',  ( -4.099999999999999645, 0.000000000000000000, 5.000000000000000000 ) ) ;
#21 = CARTESIAN_POINT ( 'NONE',  ( -4.099999999999999645, 0.000000000000000000, 125.0000000000000000 ) ) ;
#22 = APPROVAL_ROLE ( '' ) ;
#23 = CARTESIAN_POINT ( 'NONE',  ( 0.000000000000000000, 0.000000000000000000, 125.0000000000000000 ) ) ;
#24 = APPROVAL_PERSON_ORGANIZATION ( #88, #190, #65 ) ;
#25 = DIRECTION ( 'NONE',  ( -0.000000000000000000, -0.000000000000000000, -1.000000000000000000 ) ) ;
#26 = COORDINATED_UNIVERSAL_TIME_OFFSET ( 1, 0, .AHEAD. ) ;
#27 = DIRECTION ( 'NONE',  ( 1.000000000000000000, 0.000000000000000000, 0.000000000000000000 ) ) ;
#28 = EDGE_CURVE ( 'NONE', #77, #169, #106, .T. ) ;
#29 = ORIENTED_EDGE ( 'NONE', *, *, #96, .T. ) ;
#30 = CARTESIAN_POINT ( 'NONE',  ( -7.000000000000000000, 0.000000000000000000, 5.000000000000000000 ) ) ;
#31 = LOCAL_TIME ( 12, 18, 40.00000000000000000, #26 ) ;
#32 = VERTEX_POINT ( 'NONE', #21 ) ;
#33 = PRODUCT_DEFINITION ( 'NEZNÁMÝ', '', #231, #246 ) ;
#34 = EDGE_LOOP ( 'NONE', ( #71, #252, #11, #76 ) ) ;
#35 = EDGE_CURVE ( 'NONE', #109, #169, #250, .T. ) ;
#36 = AXIS2_PLACEMENT_3D ( 'NONE', #23, #160, #225 ) ;
#37 = AXIS2_PLACEMENT_3D ( 'NONE', #51, #228, #27 ) ;
#38 = CC_DESIGN_PERSON_AND_ORGANIZATION_ASSIGNMENT ( #121, #167, ( #153 ) ) ;
#39 = CARTESIAN_POINT ( 'NONE',  ( 0.000000000000000000, 0.000000000000000000, 0.000000000000000000 ) ) ;
#40 = MANIFOLD_SOLID_BREP ( 'Pøidat vysunutím3', #42 ) ;
#41 = CARTESIAN_POINT ( 'NONE',  ( 0.000000000000000000, 0.000000000000000000, 125.0000000000000000 ) ) ;
#42 = CLOSED_SHELL ( 'NONE', ( #184, #178, #2, #230, #222, #200, #126 ) ) ;
#43 = AXIS2_PLACEMENT_3D ( 'NONE', #41, #45, #238 ) ;
#44 = DIRECTION ( 'NONE',  ( 0.000000000000000000, 0.000000000000000000, 1.000000000000000000 ) ) ;
#45 = DIRECTION ( 'NONE',  ( 0.000000000000000000, 0.000000000000000000, 1.000000000000000000 ) ) ;
#46 = FACE_OUTER_BOUND ( 'NONE', #69, .T. ) ;
#47 = AXIS2_PLACEMENT_3D ( 'NONE', #204, #1, #141 ) ;
#48 = PERSON_AND_ORGANIZATION_ROLE ( 'creator' ) ;
#49 = APPROVAL_ROLE ( '' ) ;
#50 = EDGE_CURVE ( 'NONE', #32, #100, #216, .T. ) ;
#51 = CARTESIAN_POINT ( 'NONE',  ( 0.000000000000000000, 0.000000000000000000, 5.000000000000000000 ) ) ;
#52 = LINE ( 'NONE', #30, #168 ) ;
#53 = COORDINATED_UNIVERSAL_TIME_OFFSET ( 1, 0, .AHEAD. ) ;
#54 = AXIS2_PLACEMENT_3D ( 'NONE', #87, #44, #4 ) ;
#55 =( NAMED_UNIT ( * ) SI_UNIT ( $, .STERADIAN. ) SOLID_ANGLE_UNIT ( ) );
#56 = ORIENTED_EDGE ( 'NONE', *, *, #35, .F. ) ;
#57 = EDGE_CURVE ( 'NONE', #32, #110, #157, .T. ) ;
#58 = FACE_OUTER_BOUND ( 'NONE', #34, .T. ) ;
#59 = DIRECTION ( 'NONE',  ( -0.000000000000000000, -0.000000000000000000, -1.000000000000000000 ) ) ;
#60 = ORIENTED_EDGE ( 'NONE', *, *, #50, .F. ) ;
#61 = CARTESIAN_POINT ( 'NONE',  ( 4.099999999999999645, 5.021051876504147385E-16, 5.000000000000000000 ) ) ;
#62 = CARTESIAN_POINT ( 'NONE',  ( -4.099999999999999645, 0.000000000000000000, 125.0000000000000000 ) ) ;
#63 = DIRECTION ( 'NONE',  ( -1.000000000000000000, 0.000000000000000000, 0.000000000000000000 ) ) ;
#64 = CARTESIAN_POINT ( 'NONE',  ( 7.000000000000000000, 8.572527594031473190E-16, 5.000000000000000000 ) ) ;
#65 = APPROVAL_ROLE ( '' ) ;
#66 = CALENDAR_DATE ( 2023, 12, 2 ) ;
#67 = DIRECTION ( 'NONE',  ( 0.000000000000000000, 0.000000000000000000, 1.000000000000000000 ) ) ;
#68 = LOCAL_TIME ( 12, 18, 40.00000000000000000, #191 ) ;
#69 = EDGE_LOOP ( 'NONE', ( #108, #195, #149, #234 ) ) ;
#70 = PRODUCT_DEFINITION_SHAPE ( 'NONE', 'NONE',  #33 ) ;
#71 = ORIENTED_EDGE ( 'NONE', *, *, #28, .F. ) ;
#72 = DATE_AND_TIME ( #194, #253 ) ;
#73 = VECTOR ( 'NONE', #84, 1000.000000000000000 ) ;
#74 = DIRECTION ( 'NONE',  ( 0.000000000000000000, 0.000000000000000000, 1.000000000000000000 ) ) ;
#75 = CC_DESIGN_SECURITY_CLASSIFICATION ( #153, ( #231 ) ) ;
#76 = ORIENTED_EDGE ( 'NONE', *, *, #35, .T. ) ;
#77 = VERTEX_POINT ( 'NONE', #82 ) ;
#78 = EDGE_CURVE ( 'NONE', #145, #110, #177, .T. ) ;
#79 = AXIS2_PLACEMENT_3D ( 'NONE', #255, #158, #199 ) ;
#80 = APPROVAL_PERSON_ORGANIZATION ( #94, #219, #49 ) ;
#81 = APPROVAL_DATE_TIME ( #176, #190 ) ;
#82 = CARTESIAN_POINT ( 'NONE',  ( 7.000000000000000000, 8.572527594031473190E-16, 5.000000000000000000 ) ) ;
#83 = CARTESIAN_POINT ( 'NONE',  ( 4.099999999999999645, 5.021051876504147385E-16, 125.0000000000000000 ) ) ;
#84 = DIRECTION ( 'NONE',  ( -0.000000000000000000, -0.000000000000000000, -1.000000000000000000 ) ) ;
#85 = CYLINDRICAL_SURFACE ( 'NONE', #164, 4.099999999999999645 ) ;
#86 = CIRCLE ( 'NONE', #112, 7.000000000000000000 ) ;
#87 = CARTESIAN_POINT ( 'NONE',  ( 0.000000000000000000, 0.000000000000000000, 0.000000000000000000 ) ) ;
#88 = PERSON_AND_ORGANIZATION ( #161, #114 ) ;
#89 = CC_DESIGN_PERSON_AND_ORGANIZATION_ASSIGNMENT ( #6, #142, ( #231 ) ) ;
#90 = DATE_AND_TIME ( #170, #31 ) ;
#91 = DATE_TIME_ROLE ( 'creation_date' ) ;
#92 = UNCERTAINTY_MEASURE_WITH_UNIT (LENGTH_MEASURE( 1.000000000000000082E-05 ), #124, 'distance_accuracy_value', 'NONE');
#93 = DATE_AND_TIME ( #127, #68 ) ;
#94 = PERSON_AND_ORGANIZATION ( #161, #114 ) ;
#95 =( NAMED_UNIT ( * ) PLANE_ANGLE_UNIT ( ) SI_UNIT ( $, .RADIAN. ) );
#96 = EDGE_CURVE ( 'NONE', #169, #109, #162, .T. ) ;
#97 = SHAPE_DEFINITION_REPRESENTATION ( #70, #179 ) ;
#98 = DIRECTION ( 'NONE',  ( 1.000000000000000000, 0.000000000000000000, 0.000000000000000000 ) ) ;
#99 =( GEOMETRIC_REPRESENTATION_CONTEXT ( 3 ) GLOBAL_UNCERTAINTY_ASSIGNED_CONTEXT ( ( #92 ) ) GLOBAL_UNIT_ASSIGNED_CONTEXT ( ( #124, #95, #55 ) ) REPRESENTATION_CONTEXT ( 'NONE', 'WORKASPACE' ) );
#100 = VERTEX_POINT ( 'NONE', #83 ) ;
#101 = DIRECTION ( 'NONE',  ( 1.000000000000000000, 0.000000000000000000, 0.000000000000000000 ) ) ;
#102 = EDGE_CURVE ( 'NONE', #110, #145, #202, .T. ) ;
#103 = CYLINDRICAL_SURFACE ( 'NONE', #130, 4.099999999999999645 ) ;
#104 = LOCAL_TIME ( 12, 18, 40.00000000000000000, #53 ) ;
#105 = CARTESIAN_POINT ( 'NONE',  ( 0.000000000000000000, 0.000000000000000000, 0.000000000000000000 ) ) ;
#106 = LINE ( 'NONE', #64, #73 ) ;
#107 = PERSON_AND_ORGANIZATION ( #161, #114 ) ;
#108 = ORIENTED_EDGE ( 'NONE', *, *, #147, .F. ) ;
#109 = VERTEX_POINT ( 'NONE', #159 ) ;
#110 = VERTEX_POINT ( 'NONE', #20 ) ;
#111 = CC_DESIGN_PERSON_AND_ORGANIZATION_ASSIGNMENT ( #172, #48, ( #33 ) ) ;
#112 = AXIS2_PLACEMENT_3D ( 'NONE', #5, #239, #221 ) ;
#113 = CYLINDRICAL_SURFACE ( 'NONE', #79, 7.000000000000000000 ) ;
#114 = ORGANIZATION ( 'NEURÈENÝ', 'NEURÈENÝ', '' ) ;
#115 = ORIENTED_EDGE ( 'NONE', *, *, #224, .T. ) ;
#116 = DIRECTION ( 'NONE',  ( 0.000000000000000000, 0.000000000000000000, 1.000000000000000000 ) ) ;
#117 = DIRECTION ( 'NONE',  ( -0.000000000000000000, -0.000000000000000000, -1.000000000000000000 ) ) ;
#118 = AXIS2_PLACEMENT_3D ( 'NONE', #226, #117, #207 ) ;
#119 = FACE_OUTER_BOUND ( 'NONE', #15, .T. ) ;
#120 = FACE_OUTER_BOUND ( 'NONE', #180, .T. ) ;
#121 = PERSON_AND_ORGANIZATION ( #161, #114 ) ;
#122 = PERSON_AND_ORGANIZATION ( #161, #114 ) ;
#123 = APPROVAL_DATE_TIME ( #93, #219 ) ;
#124 =( LENGTH_UNIT ( ) NAMED_UNIT ( * ) SI_UNIT ( .MILLI., .METRE. ) );
#125 = EDGE_CURVE ( 'NONE', #77, #17, #86, .T. ) ;
#126 = ADVANCED_FACE ( 'NONE', ( #241 ), #208, .T. ) ;
#127 = CALENDAR_DATE ( 2023, 12, 2 ) ;
#128 = FACE_OUTER_BOUND ( 'NONE', #236, .T. ) ;
#129 = CALENDAR_DATE ( 2023, 12, 2 ) ;
#130 = AXIS2_PLACEMENT_3D ( 'NONE', #205, #183, #63 ) ;
#131 = LINE ( 'NONE', #206, #16 ) ;
#132 = APPLICATION_CONTEXT ( 'configuration controlled 3d designs of mechanical parts and assemblies' ) ;
#133 = CIRCLE ( 'NONE', #43, 4.099999999999999645 ) ;
#134 = ORIENTED_EDGE ( 'NONE', *, *, #50, .T. ) ;
#135 = CC_DESIGN_APPROVAL ( #18, ( #231 ) ) ;
#136 = CARTESIAN_POINT ( 'NONE',  ( 7.000000000000000000, 8.572527594031473190E-16, 0.000000000000000000 ) ) ;
#137 = VECTOR ( 'NONE', #19, 1000.000000000000000 ) ;
#138 = CARTESIAN_POINT ( 'NONE',  ( -7.000000000000000000, 0.000000000000000000, 5.000000000000000000 ) ) ;
#139 = APPROVAL_PERSON_ORGANIZATION ( #12, #18, #22 ) ;
#140 = PLANE ( 'NONE',  #203 ) ;
#141 = DIRECTION ( 'NONE',  ( 1.000000000000000000, 0.000000000000000000, 0.000000000000000000 ) ) ;
#142 = PERSON_AND_ORGANIZATION_ROLE ( 'design_supplier' ) ;
#143 = DATE_AND_TIME ( #66, #104 ) ;
#144 = DIRECTION ( 'NONE',  ( 1.000000000000000000, 0.000000000000000000, -0.000000000000000000 ) ) ;
#145 = VERTEX_POINT ( 'NONE', #61 ) ;
#146 = PRODUCT ( 'bcbc', 'bcbc', '', ( #182 ) ) ;
#147 = EDGE_CURVE ( 'NONE', #100, #32, #133, .T. ) ;
#148 = FACE_BOUND ( 'NONE', #251, .T. ) ;
#149 = ORIENTED_EDGE ( 'NONE', *, *, #78, .T. ) ;
#150 = SECURITY_CLASSIFICATION_LEVEL ( 'unclassified' ) ;
#151 = ORIENTED_EDGE ( 'NONE', *, *, #102, .F. ) ;
#152 = APPROVAL_STATUS ( 'not_yet_approved' ) ;
#153 = SECURITY_CLASSIFICATION ( '', '', #150 ) ;
#154 = ORIENTED_EDGE ( 'NONE', *, *, #147, .T. ) ;
#155 = ORIENTED_EDGE ( 'NONE', *, *, #28, .T. ) ;
#156 = EDGE_LOOP ( 'NONE', ( #134, #154 ) ) ;
#157 = LINE ( 'NONE', #62, #137 ) ;
#158 = DIRECTION ( 'NONE',  ( -0.000000000000000000, -0.000000000000000000, -1.000000000000000000 ) ) ;
#159 = CARTESIAN_POINT ( 'NONE',  ( -7.000000000000000000, 0.000000000000000000, 0.000000000000000000 ) ) ;
#160 = DIRECTION ( 'NONE',  ( 0.000000000000000000, 0.000000000000000000, 1.000000000000000000 ) ) ;
#161 = PERSON ( 'NEURÈENÝ', 'NEURÈENÝ', 'NEURÈENÝ', ('NEURÈENÝ'), ('NEURÈENÝ'), ('NEURÈENÝ') ) ;
#162 = CIRCLE ( 'NONE', #54, 7.000000000000000000 ) ;
#163 = DIRECTION ( 'NONE',  ( -1.000000000000000000, 0.000000000000000000, 0.000000000000000000 ) ) ;
#164 = AXIS2_PLACEMENT_3D ( 'NONE', #210, #59, #163 ) ;
#165 = CC_DESIGN_DATE_AND_TIME_ASSIGNMENT ( #143, #188, ( #153 ) ) ;
#166 = DIRECTION ( 'NONE',  ( 0.000000000000000000, 0.000000000000000000, 1.000000000000000000 ) ) ;
#167 = PERSON_AND_ORGANIZATION_ROLE ( 'classification_officer' ) ;
#168 = VECTOR ( 'NONE', #189, 1000.000000000000000 ) ;
#169 = VERTEX_POINT ( 'NONE', #136 ) ;
#170 = CALENDAR_DATE ( 2023, 12, 2 ) ;
#171 = DIRECTION ( 'NONE',  ( 1.000000000000000000, 0.000000000000000000, 0.000000000000000000 ) ) ;
#172 = PERSON_AND_ORGANIZATION ( #161, #114 ) ;
#173 = CARTESIAN_POINT ( 'NONE',  ( 0.000000000000000000, 0.000000000000000000, 125.0000000000000000 ) ) ;
#174 = ORIENTED_EDGE ( 'NONE', *, *, #125, .T. ) ;
#175 = AXIS2_PLACEMENT_3D ( 'NONE', #223, #166, #187 ) ;
#176 = DATE_AND_TIME ( #129, #211 ) ;
#177 = CIRCLE ( 'NONE', #175, 4.099999999999999645 ) ;
#178 = ADVANCED_FACE ( 'NONE', ( #119 ), #243, .T. ) ;
#179 = ADVANCED_BREP_SHAPE_REPRESENTATION ( 'bcbc', ( #40, #235 ), #99 ) ;
#180 = EDGE_LOOP ( 'NONE', ( #237, #60, #215, #217 ) ) ;
#181 = ORIENTED_EDGE ( 'NONE', *, *, #254, .F. ) ;
#182 = MECHANICAL_CONTEXT ( 'NONE', #198, 'mechanical' ) ;
#183 = DIRECTION ( 'NONE',  ( -0.000000000000000000, -0.000000000000000000, -1.000000000000000000 ) ) ;
#184 = ADVANCED_FACE ( 'NONE', ( #46 ), #103, .T. ) ;
#185 = CC_DESIGN_APPROVAL ( #190, ( #153 ) ) ;
#186 = APPROVAL_DATE_TIME ( #90, #18 ) ;
#187 = DIRECTION ( 'NONE',  ( 1.000000000000000000, 0.000000000000000000, 0.000000000000000000 ) ) ;
#188 = DATE_TIME_ROLE ( 'classification_date' ) ;
#189 = DIRECTION ( 'NONE',  ( -0.000000000000000000, -0.000000000000000000, -1.000000000000000000 ) ) ;
#190 = APPROVAL ( #244, 'NEURÈENÝ' ) ;
#191 = COORDINATED_UNIVERSAL_TIME_OFFSET ( 1, 0, .AHEAD. ) ;
#192 = DIRECTION ( 'NONE',  ( 1.000000000000000000, 0.000000000000000000, -0.000000000000000000 ) ) ;
#193 = CIRCLE ( 'NONE', #37, 7.000000000000000000 ) ;
#194 = CALENDAR_DATE ( 2023, 12, 2 ) ;
#195 = ORIENTED_EDGE ( 'NONE', *, *, #10, .T. ) ;
#196 = PLANE ( 'NONE',  #213 ) ;
#197 = EDGE_LOOP ( 'NONE', ( #56, #212 ) ) ;
#198 = APPLICATION_CONTEXT ( 'configuration controlled 3d designs of mechanical parts and assemblies' ) ;
#199 = DIRECTION ( 'NONE',  ( -1.000000000000000000, 0.000000000000000000, 0.000000000000000000 ) ) ;
#200 = ADVANCED_FACE ( 'NONE', ( #120 ), #85, .T. ) ;
#201 = CC_DESIGN_PERSON_AND_ORGANIZATION_ASSIGNMENT ( #107, #247, ( #231 ) ) ;
#202 = CIRCLE ( 'NONE', #47, 4.099999999999999645 ) ;
#203 = AXIS2_PLACEMENT_3D ( 'NONE', #105, #67, #144 ) ;
#204 = CARTESIAN_POINT ( 'NONE',  ( 0.000000000000000000, 0.000000000000000000, 5.000000000000000000 ) ) ;
#205 = CARTESIAN_POINT ( 'NONE',  ( 0.000000000000000000, 0.000000000000000000, 125.0000000000000000 ) ) ;
#206 = CARTESIAN_POINT ( 'NONE',  ( 4.099999999999999645, 5.021051876504147385E-16, 125.0000000000000000 ) ) ;
#207 = DIRECTION ( 'NONE',  ( -1.000000000000000000, 0.000000000000000000, 0.000000000000000000 ) ) ;
#208 = PLANE ( 'NONE',  #36 ) ;
#209 = AXIS2_PLACEMENT_3D ( 'NONE', #242, #9, #171 ) ;
#210 = CARTESIAN_POINT ( 'NONE',  ( 0.000000000000000000, 0.000000000000000000, 125.0000000000000000 ) ) ;
#211 = LOCAL_TIME ( 12, 18, 40.00000000000000000, #7 ) ;
#212 = ORIENTED_EDGE ( 'NONE', *, *, #96, .F. ) ;
#213 = AXIS2_PLACEMENT_3D ( 'NONE', #229, #74, #192 ) ;
#214 = DIRECTION ( 'NONE',  ( 0.000000000000000000, 0.000000000000000000, 1.000000000000000000 ) ) ;
#215 = ORIENTED_EDGE ( 'NONE', *, *, #57, .T. ) ;
#216 = CIRCLE ( 'NONE', #13, 4.099999999999999645 ) ;
#217 = ORIENTED_EDGE ( 'NONE', *, *, #102, .T. ) ;
#218 = CC_DESIGN_APPROVAL ( #219, ( #33 ) ) ;
#219 = APPROVAL ( #152, 'NEURÈENÝ' ) ;
#220 = FACE_OUTER_BOUND ( 'NONE', #197, .T. ) ;
#221 = DIRECTION ( 'NONE',  ( 1.000000000000000000, 0.000000000000000000, 0.000000000000000000 ) ) ;
#222 = ADVANCED_FACE ( 'NONE', ( #220 ), #140, .F. ) ;
#223 = CARTESIAN_POINT ( 'NONE',  ( 0.000000000000000000, 0.000000000000000000, 5.000000000000000000 ) ) ;
#224 = EDGE_CURVE ( 'NONE', #17, #77, #193, .T. ) ;
#225 = DIRECTION ( 'NONE',  ( 1.000000000000000000, 0.000000000000000000, -0.000000000000000000 ) ) ;
#226 = CARTESIAN_POINT ( 'NONE',  ( 0.000000000000000000, 0.000000000000000000, 5.000000000000000000 ) ) ;
#227 = PERSON_AND_ORGANIZATION_ROLE ( 'design_owner' ) ;
#228 = DIRECTION ( 'NONE',  ( 0.000000000000000000, 0.000000000000000000, 1.000000000000000000 ) ) ;
#229 = CARTESIAN_POINT ( 'NONE',  ( 0.000000000000000000, 0.000000000000000000, 5.000000000000000000 ) ) ;
#230 = ADVANCED_FACE ( 'NONE', ( #148, #128 ), #196, .T. ) ;
#231 = PRODUCT_DEFINITION_FORMATION_WITH_SPECIFIED_SOURCE ( 'LIBOVOLNÝ', '', #146, .NOT_KNOWN. ) ;
#232 = APPROVAL_STATUS ( 'not_yet_approved' ) ;
#233 = CC_DESIGN_PERSON_AND_ORGANIZATION_ASSIGNMENT ( #122, #227, ( #146 ) ) ;
#234 = ORIENTED_EDGE ( 'NONE', *, *, #57, .F. ) ;
#235 = AXIS2_PLACEMENT_3D ( 'NONE', #39, #116, #101 ) ;
#236 = EDGE_LOOP ( 'NONE', ( #115, #174 ) ) ;
#237 = ORIENTED_EDGE ( 'NONE', *, *, #10, .F. ) ;
#238 = DIRECTION ( 'NONE',  ( 1.000000000000000000, 0.000000000000000000, 0.000000000000000000 ) ) ;
#239 = DIRECTION ( 'NONE',  ( 0.000000000000000000, 0.000000000000000000, 1.000000000000000000 ) ) ;
#240 = CC_DESIGN_DATE_AND_TIME_ASSIGNMENT ( #72, #91, ( #33 ) ) ;
#241 = FACE_OUTER_BOUND ( 'NONE', #156, .T. ) ;
#242 = CARTESIAN_POINT ( 'NONE',  ( 0.000000000000000000, 0.000000000000000000, 0.000000000000000000 ) ) ;
#243 = CYLINDRICAL_SURFACE ( 'NONE', #118, 7.000000000000000000 ) ;
#244 = APPROVAL_STATUS ( 'not_yet_approved' ) ;
#245 = ORIENTED_EDGE ( 'NONE', *, *, #78, .F. ) ;
#246 = DESIGN_CONTEXT ( 'detailed design', #132, 'design' ) ;
#247 = PERSON_AND_ORGANIZATION_ROLE ( 'creator' ) ;
#248 = PRODUCT_RELATED_PRODUCT_CATEGORY ( 'detail', '', ( #146 ) ) ;
#249 = COORDINATED_UNIVERSAL_TIME_OFFSET ( 1, 0, .AHEAD. ) ;
#250 = CIRCLE ( 'NONE', #209, 7.000000000000000000 ) ;
#251 = EDGE_LOOP ( 'NONE', ( #151, #245 ) ) ;
#252 = ORIENTED_EDGE ( 'NONE', *, *, #224, .F. ) ;
#253 = LOCAL_TIME ( 12, 18, 40.00000000000000000, #249 ) ;
#254 = EDGE_CURVE ( 'NONE', #17, #109, #52, .T. ) ;
#255 = CARTESIAN_POINT ( 'NONE',  ( 0.000000000000000000, 0.000000000000000000, 5.000000000000000000 ) ) ;
ENDSEC;
END-ISO-10303-21;
