ISO-10303-21;
HEADER;
FILE_DESCRIPTION (( 'STEP AP203' ),
    '1' );
FILE_NAME ('4134.STEP',
    '2023-02-12T11:19:32',
    ( '' ),
    ( '' ),
    'SwSTEP 2.0',
    'SolidWorks 2019',
    '' );
FILE_SCHEMA (( 'CONFIG_CONTROL_DESIGN' ));
ENDSEC;

DATA;
#1 = ORIENTED_EDGE ( 'NONE', *, *, #72, .F. ) ;
#2 = ORIENTED_EDGE ( 'NONE', *, *, #32, .F. ) ;
#3 = CC_DESIGN_PERSON_AND_ORGANIZATION_ASSIGNMENT ( #154, #92, ( #109 ) ) ;
#4 = ORIENTED_EDGE ( 'NONE', *, *, #207, .F. ) ;
#5 = CC_DESIGN_APPROVAL ( #170, ( #109 ) ) ;
#6 = ORIENTED_EDGE ( 'NONE', *, *, #72, .T. ) ;
#7 = FACE_OUTER_BOUND ( 'NONE', #161, .T. ) ;
#8 = LOCAL_TIME ( 12, 19, 32.00000000000000000, #172 ) ;
#9 = DIRECTION ( 'NONE',  ( 1.000000000000000000, 0.000000000000000000, 0.000000000000000000 ) ) ;
#10 = CARTESIAN_POINT ( 'NONE',  ( 0.000000000000000000, 0.000000000000000000, 5.000000000000000000 ) ) ;
#11 = CIRCLE ( 'NONE', #198, 7.000000000000000000 ) ;
#12 = CARTESIAN_POINT ( 'NONE',  ( 7.000000000000000000, 8.572527594031473190E-16, 5.000000000000000000 ) ) ;
#13 = APPROVAL_ROLE ( '' ) ;
#14 = APPROVAL_ROLE ( '' ) ;
#15 = ORIENTED_EDGE ( 'NONE', *, *, #77, .T. ) ;
#16 = CARTESIAN_POINT ( 'NONE',  ( 0.000000000000000000, 0.000000000000000000, 5.000000000000000000 ) ) ;
#17 = DATE_AND_TIME ( #91, #56 ) ;
#18 = ADVANCED_FACE ( 'NONE', ( #240 ), #242, .T. ) ;
#19 = ORIENTED_EDGE ( 'NONE', *, *, #207, .T. ) ;
#20 = PERSON ( 'NEURÈENÝ', 'NEURÈENÝ', 'NEURÈENÝ', ('NEURÈENÝ'), ('NEURÈENÝ'), ('NEURÈENÝ') ) ;
#21 = VECTOR ( 'NONE', #196, 1000.000000000000000 ) ;
#22 = ORIENTED_EDGE ( 'NONE', *, *, #233, .F. ) ;
#23 = CARTESIAN_POINT ( 'NONE',  ( 4.000000000000000000, 4.898587196589412829E-16, 5.000000000000000000 ) ) ;
#24 = AXIS2_PLACEMENT_3D ( 'NONE', #108, #186, #9 ) ;
#25 = DIRECTION ( 'NONE',  ( 0.000000000000000000, 0.000000000000000000, 1.000000000000000000 ) ) ;
#26 = CARTESIAN_POINT ( 'NONE',  ( -4.000000000000000000, 0.000000000000000000, 315.0000000000000000 ) ) ;
#27 = CC_DESIGN_PERSON_AND_ORGANIZATION_ASSIGNMENT ( #191, #112, ( #188 ) ) ;
#28 = CARTESIAN_POINT ( 'NONE',  ( 0.000000000000000000, 0.000000000000000000, 315.0000000000000000 ) ) ;
#29 = VECTOR ( 'NONE', #143, 1000.000000000000000 ) ;
#30 = PRODUCT ( '4134', '4134', '', ( #35 ) ) ;
#31 = APPLICATION_CONTEXT ( 'configuration controlled 3d designs of mechanical parts and assemblies' ) ;
#32 = EDGE_CURVE ( 'NONE', #63, #193, #128, .T. ) ;
#33 = LINE ( 'NONE', #250, #160 ) ;
#34 = AXIS2_PLACEMENT_3D ( 'NONE', #39, #43, #79 ) ;
#35 = MECHANICAL_CONTEXT ( 'NONE', #31, 'mechanical' ) ;
#36 = CIRCLE ( 'NONE', #89, 7.000000000000000000 ) ;
#37 = APPROVAL_DATE_TIME ( #17, #205 ) ;
#38 = CARTESIAN_POINT ( 'NONE',  ( 4.000000000000000000, 4.898587196589412829E-16, 315.0000000000000000 ) ) ;
#39 = CARTESIAN_POINT ( 'NONE',  ( 0.000000000000000000, 0.000000000000000000, 5.000000000000000000 ) ) ;
#40 = FACE_OUTER_BOUND ( 'NONE', #120, .T. ) ;
#41 = FACE_OUTER_BOUND ( 'NONE', #157, .T. ) ;
#42 = DIRECTION ( 'NONE',  ( 0.000000000000000000, 0.000000000000000000, 1.000000000000000000 ) ) ;
#43 = DIRECTION ( 'NONE',  ( -0.000000000000000000, -0.000000000000000000, -1.000000000000000000 ) ) ;
#44 = DIRECTION ( 'NONE',  ( 0.000000000000000000, 0.000000000000000000, 1.000000000000000000 ) ) ;
#45 = FACE_OUTER_BOUND ( 'NONE', #180, .T. ) ;
#46 = ORIENTED_EDGE ( 'NONE', *, *, #32, .T. ) ;
#47 = PLANE ( 'NONE',  #144 ) ;
#48 =( NAMED_UNIT ( * ) SI_UNIT ( $, .STERADIAN. ) SOLID_ANGLE_UNIT ( ) );
#49 = APPLICATION_PROTOCOL_DEFINITION ( 'international standard', 'config_control_design', 1994, #177 ) ;
#50 = CIRCLE ( 'NONE', #54, 4.000000000000000000 ) ;
#51 = DATE_AND_TIME ( #136, #8 ) ;
#52 = APPROVAL_STATUS ( 'not_yet_approved' ) ;
#53 = PERSON_AND_ORGANIZATION ( #20, #167 ) ;
#54 = AXIS2_PLACEMENT_3D ( 'NONE', #216, #42, #121 ) ;
#55 = PERSON_AND_ORGANIZATION ( #20, #167 ) ;
#56 = LOCAL_TIME ( 12, 19, 32.00000000000000000, #159 ) ;
#57 = ORIENTED_EDGE ( 'NONE', *, *, #77, .F. ) ;
#58 = DIRECTION ( 'NONE',  ( -1.000000000000000000, 0.000000000000000000, 0.000000000000000000 ) ) ;
#59 = CYLINDRICAL_SURFACE ( 'NONE', #251, 4.000000000000000000 ) ;
#60 = CARTESIAN_POINT ( 'NONE',  ( 0.000000000000000000, 0.000000000000000000, 5.000000000000000000 ) ) ;
#61 = APPROVAL_PERSON_ORGANIZATION ( #175, #115, #113 ) ;
#62 = CYLINDRICAL_SURFACE ( 'NONE', #34, 7.000000000000000000 ) ;
#63 = VERTEX_POINT ( 'NONE', #213 ) ;
#64 = ADVANCED_FACE ( 'NONE', ( #40 ), #62, .T. ) ;
#65 = EDGE_LOOP ( 'NONE', ( #2, #57 ) ) ;
#66 =( NAMED_UNIT ( * ) PLANE_ANGLE_UNIT ( ) SI_UNIT ( $, .RADIAN. ) );
#67 = EDGE_CURVE ( 'NONE', #217, #71, #218, .T. ) ;
#68 = CARTESIAN_POINT ( 'NONE',  ( 7.000000000000000000, 8.572527594031473190E-16, 0.000000000000000000 ) ) ;
#69 = DIRECTION ( 'NONE',  ( 0.000000000000000000, 0.000000000000000000, 1.000000000000000000 ) ) ;
#70 = APPROVAL_PERSON_ORGANIZATION ( #55, #170, #13 ) ;
#71 = VERTEX_POINT ( 'NONE', #38 ) ;
#72 = EDGE_CURVE ( 'NONE', #71, #217, #50, .T. ) ;
#73 = PERSON_AND_ORGANIZATION ( #20, #167 ) ;
#74 = CIRCLE ( 'NONE', #229, 7.000000000000000000 ) ;
#75 = DATE_AND_TIME ( #171, #166 ) ;
#76 = VERTEX_POINT ( 'NONE', #195 ) ;
#77 = EDGE_CURVE ( 'NONE', #193, #63, #201, .T. ) ;
#78 = COORDINATED_UNIVERSAL_TIME_OFFSET ( 1, 0, .AHEAD. ) ;
#79 = DIRECTION ( 'NONE',  ( -1.000000000000000000, 0.000000000000000000, 0.000000000000000000 ) ) ;
#80 = CC_DESIGN_APPROVAL ( #115, ( #188 ) ) ;
#81 = ORIENTED_EDGE ( 'NONE', *, *, #119, .F. ) ;
#82 = CARTESIAN_POINT ( 'NONE',  ( 0.000000000000000000, 0.000000000000000000, 0.000000000000000000 ) ) ;
#83 = CC_DESIGN_DATE_AND_TIME_ASSIGNMENT ( #51, #234, ( #109 ) ) ;
#84 = ORIENTED_EDGE ( 'NONE', *, *, #197, .T. ) ;
#85 = DIRECTION ( 'NONE',  ( 1.000000000000000000, 0.000000000000000000, -0.000000000000000000 ) ) ;
#86 = LINE ( 'NONE', #100, #29 ) ;
#87 = ADVANCED_FACE ( 'NONE', ( #137, #7 ), #47, .T. ) ;
#88 = DIRECTION ( 'NONE',  ( 1.000000000000000000, 0.000000000000000000, 0.000000000000000000 ) ) ;
#89 = AXIS2_PLACEMENT_3D ( 'NONE', #82, #44, #105 ) ;
#90 = CARTESIAN_POINT ( 'NONE',  ( 0.000000000000000000, 0.000000000000000000, 5.000000000000000000 ) ) ;
#91 = CALENDAR_DATE ( 2023, 12, 2 ) ;
#92 = PERSON_AND_ORGANIZATION_ROLE ( 'classification_officer' ) ;
#93 = VERTEX_POINT ( 'NONE', #12 ) ;
#94 = PERSON_AND_ORGANIZATION_ROLE ( 'design_owner' ) ;
#95 = CC_DESIGN_PERSON_AND_ORGANIZATION_ASSIGNMENT ( #135, #252, ( #221 ) ) ;
#96 = COORDINATED_UNIVERSAL_TIME_OFFSET ( 1, 0, .AHEAD. ) ;
#97 = DIRECTION ( 'NONE',  ( 1.000000000000000000, 0.000000000000000000, 0.000000000000000000 ) ) ;
#98 = CIRCLE ( 'NONE', #246, 7.000000000000000000 ) ;
#99 = ORIENTED_EDGE ( 'NONE', *, *, #253, .T. ) ;
#100 = CARTESIAN_POINT ( 'NONE',  ( 4.000000000000000000, 4.898587196589412829E-16, 315.0000000000000000 ) ) ;
#101 = VERTEX_POINT ( 'NONE', #68 ) ;
#102 = ORIENTED_EDGE ( 'NONE', *, *, #233, .T. ) ;
#103 = DIRECTION ( 'NONE',  ( -0.000000000000000000, -0.000000000000000000, -1.000000000000000000 ) ) ;
#104 = DIRECTION ( 'NONE',  ( -1.000000000000000000, 0.000000000000000000, 0.000000000000000000 ) ) ;
#105 = DIRECTION ( 'NONE',  ( 1.000000000000000000, 0.000000000000000000, 0.000000000000000000 ) ) ;
#106 = DIRECTION ( 'NONE',  ( 0.000000000000000000, 0.000000000000000000, 1.000000000000000000 ) ) ;
#107 = EDGE_CURVE ( 'NONE', #164, #76, #33, .T. ) ;
#108 = CARTESIAN_POINT ( 'NONE',  ( 0.000000000000000000, 0.000000000000000000, 0.000000000000000000 ) ) ;
#109 = SECURITY_CLASSIFICATION ( '', '', #116 ) ;
#110 = PERSON_AND_ORGANIZATION ( #20, #167 ) ;
#111 =( LENGTH_UNIT ( ) NAMED_UNIT ( * ) SI_UNIT ( .MILLI., .METRE. ) );
#112 = PERSON_AND_ORGANIZATION_ROLE ( 'design_supplier' ) ;
#113 = APPROVAL_ROLE ( '' ) ;
#114 = DIRECTION ( 'NONE',  ( 0.000000000000000000, 0.000000000000000000, 1.000000000000000000 ) ) ;
#115 = APPROVAL ( #227, 'NEURÈENÝ' ) ;
#116 = SECURITY_CLASSIFICATION_LEVEL ( 'unclassified' ) ;
#117 = AXIS2_PLACEMENT_3D ( 'NONE', #148, #146, #223 ) ;
#118 = SHAPE_DEFINITION_REPRESENTATION ( #204, #231 ) ;
#119 = EDGE_CURVE ( 'NONE', #93, #164, #98, .T. ) ;
#120 = EDGE_LOOP ( 'NONE', ( #244, #22, #237, #99 ) ) ;
#121 = DIRECTION ( 'NONE',  ( 1.000000000000000000, 0.000000000000000000, 0.000000000000000000 ) ) ;
#122 = DIRECTION ( 'NONE',  ( 0.000000000000000000, 0.000000000000000000, 1.000000000000000000 ) ) ;
#123 = DIRECTION ( 'NONE',  ( -0.000000000000000000, -0.000000000000000000, -1.000000000000000000 ) ) ;
#124 = ORIENTED_EDGE ( 'NONE', *, *, #141, .T. ) ;
#125 = DIRECTION ( 'NONE',  ( 0.000000000000000000, 0.000000000000000000, 1.000000000000000000 ) ) ;
#126 = CARTESIAN_POINT ( 'NONE',  ( 0.000000000000000000, 0.000000000000000000, 0.000000000000000000 ) ) ;
#127 = DIRECTION ( 'NONE',  ( 0.000000000000000000, 0.000000000000000000, 1.000000000000000000 ) ) ;
#128 = CIRCLE ( 'NONE', #226, 4.000000000000000000 ) ;
#129 = LOCAL_TIME ( 12, 19, 32.00000000000000000, #78 ) ;
#130 = EDGE_LOOP ( 'NONE', ( #81, #124, #19, #152 ) ) ;
#131 = UNCERTAINTY_MEASURE_WITH_UNIT (LENGTH_MEASURE( 1.000000000000000082E-05 ), #111, 'distance_accuracy_value', 'NONE');
#132 = VECTOR ( 'NONE', #230, 1000.000000000000000 ) ;
#133 = DATE_AND_TIME ( #187, #129 ) ;
#134 = APPROVAL_STATUS ( 'not_yet_approved' ) ;
#135 = PERSON_AND_ORGANIZATION ( #20, #167 ) ;
#136 = CALENDAR_DATE ( 2023, 12, 2 ) ;
#137 = FACE_BOUND ( 'NONE', #65, .T. ) ;
#138 = DIRECTION ( 'NONE',  ( 0.000000000000000000, 0.000000000000000000, 1.000000000000000000 ) ) ;
#139 = CARTESIAN_POINT ( 'NONE',  ( 0.000000000000000000, 0.000000000000000000, 5.000000000000000000 ) ) ;
#140 = DIRECTION ( 'NONE',  ( 1.000000000000000000, 0.000000000000000000, 0.000000000000000000 ) ) ;
#141 = EDGE_CURVE ( 'NONE', #93, #101, #254, .T. ) ;
#142 = DIRECTION ( 'NONE',  ( 1.000000000000000000, 0.000000000000000000, 0.000000000000000000 ) ) ;
#143 = DIRECTION ( 'NONE',  ( -0.000000000000000000, -0.000000000000000000, -1.000000000000000000 ) ) ;
#144 = AXIS2_PLACEMENT_3D ( 'NONE', #90, #69, #209 ) ;
#145 = CARTESIAN_POINT ( 'NONE',  ( -4.000000000000000000, 0.000000000000000000, 315.0000000000000000 ) ) ;
#146 = DIRECTION ( 'NONE',  ( -0.000000000000000000, -0.000000000000000000, -1.000000000000000000 ) ) ;
#147 = DIRECTION ( 'NONE',  ( 1.000000000000000000, 0.000000000000000000, -0.000000000000000000 ) ) ;
#148 = CARTESIAN_POINT ( 'NONE',  ( 0.000000000000000000, 0.000000000000000000, 315.0000000000000000 ) ) ;
#149 = CC_DESIGN_PERSON_AND_ORGANIZATION_ASSIGNMENT ( #110, #94, ( #30 ) ) ;
#150 = CYLINDRICAL_SURFACE ( 'NONE', #117, 4.000000000000000000 ) ;
#151 = CC_DESIGN_SECURITY_CLASSIFICATION ( #109, ( #188 ) ) ;
#152 = ORIENTED_EDGE ( 'NONE', *, *, #107, .F. ) ;
#153 = APPLICATION_PROTOCOL_DEFINITION ( 'international standard', 'config_control_design', 1994, #31 ) ;
#154 = PERSON_AND_ORGANIZATION ( #20, #167 ) ;
#155 = APPROVAL_DATE_TIME ( #210, #115 ) ;
#156 = EDGE_CURVE ( 'NONE', #217, #63, #179, .T. ) ;
#157 = EDGE_LOOP ( 'NONE', ( #1, #84, #15, #162 ) ) ;
#158 = ORIENTED_EDGE ( 'NONE', *, *, #67, .F. ) ;
#159 = COORDINATED_UNIVERSAL_TIME_OFFSET ( 1, 0, .AHEAD. ) ;
#160 = VECTOR ( 'NONE', #192, 1000.000000000000000 ) ;
#161 = EDGE_LOOP ( 'NONE', ( #102, #189 ) ) ;
#162 = ORIENTED_EDGE ( 'NONE', *, *, #156, .F. ) ;
#163 = CC_DESIGN_DATE_AND_TIME_ASSIGNMENT ( #133, #208, ( #221 ) ) ;
#164 = VERTEX_POINT ( 'NONE', #202 ) ;
#165 = DIRECTION ( 'NONE',  ( 1.000000000000000000, 0.000000000000000000, 0.000000000000000000 ) ) ;
#166 = LOCAL_TIME ( 12, 19, 32.00000000000000000, #211 ) ;
#167 = ORGANIZATION ( 'NEURÈENÝ', 'NEURÈENÝ', '' ) ;
#168 = EDGE_LOOP ( 'NONE', ( #232, #158, #178, #46 ) ) ;
#169 = CARTESIAN_POINT ( 'NONE',  ( 7.000000000000000000, 8.572527594031473190E-16, 5.000000000000000000 ) ) ;
#170 = APPROVAL ( #134, 'NEURÈENÝ' ) ;
#171 = CALENDAR_DATE ( 2023, 12, 2 ) ;
#172 = COORDINATED_UNIVERSAL_TIME_OFFSET ( 1, 0, .AHEAD. ) ;
#173 = CC_DESIGN_APPROVAL ( #205, ( #221 ) ) ;
#174 = ORIENTED_EDGE ( 'NONE', *, *, #253, .F. ) ;
#175 = PERSON_AND_ORGANIZATION ( #20, #167 ) ;
#176 = ADVANCED_FACE ( 'NONE', ( #41 ), #59, .T. ) ;
#177 = APPLICATION_CONTEXT ( 'configuration controlled 3d designs of mechanical parts and assemblies' ) ;
#178 = ORIENTED_EDGE ( 'NONE', *, *, #156, .T. ) ;
#179 = LINE ( 'NONE', #26, #21 ) ;
#180 = EDGE_LOOP ( 'NONE', ( #174, #4 ) ) ;
#181 = DESIGN_CONTEXT ( 'detailed design', #177, 'design' ) ;
#182 = FACE_OUTER_BOUND ( 'NONE', #185, .T. ) ;
#183 = PRODUCT_RELATED_PRODUCT_CATEGORY ( 'detail', '', ( #30 ) ) ;
#184 = CLOSED_SHELL ( 'NONE', ( #176, #18, #64, #87, #225, #236, #212 ) ) ;
#185 = EDGE_LOOP ( 'NONE', ( #224, #6 ) ) ;
#186 = DIRECTION ( 'NONE',  ( 0.000000000000000000, 0.000000000000000000, 1.000000000000000000 ) ) ;
#187 = CALENDAR_DATE ( 2023, 12, 2 ) ;
#188 = PRODUCT_DEFINITION_FORMATION_WITH_SPECIFIED_SOURCE ( 'LIBOVOLNÝ', '', #30, .NOT_KNOWN. ) ;
#189 = ORIENTED_EDGE ( 'NONE', *, *, #119, .T. ) ;
#190 = APPROVAL_DATE_TIME ( #75, #170 ) ;
#191 = PERSON_AND_ORGANIZATION ( #20, #167 ) ;
#192 = DIRECTION ( 'NONE',  ( -0.000000000000000000, -0.000000000000000000, -1.000000000000000000 ) ) ;
#193 = VERTEX_POINT ( 'NONE', #23 ) ;
#194 = PLANE ( 'NONE',  #203 ) ;
#195 = CARTESIAN_POINT ( 'NONE',  ( -7.000000000000000000, 0.000000000000000000, 0.000000000000000000 ) ) ;
#196 = DIRECTION ( 'NONE',  ( -0.000000000000000000, -0.000000000000000000, -1.000000000000000000 ) ) ;
#197 = EDGE_CURVE ( 'NONE', #71, #193, #86, .T. ) ;
#198 = AXIS2_PLACEMENT_3D ( 'NONE', #126, #127, #165 ) ;
#199 = CARTESIAN_POINT ( 'NONE',  ( 0.000000000000000000, 0.000000000000000000, 5.000000000000000000 ) ) ;
#200 = CARTESIAN_POINT ( 'NONE',  ( 0.000000000000000000, 0.000000000000000000, 315.0000000000000000 ) ) ;
#201 = CIRCLE ( 'NONE', #206, 4.000000000000000000 ) ;
#202 = CARTESIAN_POINT ( 'NONE',  ( -7.000000000000000000, 0.000000000000000000, 5.000000000000000000 ) ) ;
#203 = AXIS2_PLACEMENT_3D ( 'NONE', #238, #122, #147 ) ;
#204 = PRODUCT_DEFINITION_SHAPE ( 'NONE', 'NONE',  #221 ) ;
#205 = APPROVAL ( #52, 'NEURÈENÝ' ) ;
#206 = AXIS2_PLACEMENT_3D ( 'NONE', #199, #25, #235 ) ;
#207 = EDGE_CURVE ( 'NONE', #101, #76, #36, .T. ) ;
#208 = DATE_TIME_ROLE ( 'creation_date' ) ;
#209 = DIRECTION ( 'NONE',  ( 1.000000000000000000, 0.000000000000000000, -0.000000000000000000 ) ) ;
#210 = DATE_AND_TIME ( #249, #215 ) ;
#211 = COORDINATED_UNIVERSAL_TIME_OFFSET ( 1, 0, .AHEAD. ) ;
#212 = ADVANCED_FACE ( 'NONE', ( #182 ), #219, .T. ) ;
#213 = CARTESIAN_POINT ( 'NONE',  ( -4.000000000000000000, 0.000000000000000000, 5.000000000000000000 ) ) ;
#214 = MANIFOLD_SOLID_BREP ( 'Pøidat vysunutím3', #184 ) ;
#215 = LOCAL_TIME ( 12, 19, 32.00000000000000000, #96 ) ;
#216 = CARTESIAN_POINT ( 'NONE',  ( 0.000000000000000000, 0.000000000000000000, 315.0000000000000000 ) ) ;
#217 = VERTEX_POINT ( 'NONE', #145 ) ;
#218 = CIRCLE ( 'NONE', #255, 4.000000000000000000 ) ;
#219 = PLANE ( 'NONE',  #222 ) ;
#220 = FACE_OUTER_BOUND ( 'NONE', #168, .T. ) ;
#221 = PRODUCT_DEFINITION ( 'NEZNÁMÝ', '', #188, #181 ) ;
#222 = AXIS2_PLACEMENT_3D ( 'NONE', #245, #241, #85 ) ;
#223 = DIRECTION ( 'NONE',  ( -1.000000000000000000, 0.000000000000000000, 0.000000000000000000 ) ) ;
#224 = ORIENTED_EDGE ( 'NONE', *, *, #67, .T. ) ;
#225 = ADVANCED_FACE ( 'NONE', ( #45 ), #194, .F. ) ;
#226 = AXIS2_PLACEMENT_3D ( 'NONE', #139, #138, #142 ) ;
#227 = APPROVAL_STATUS ( 'not_yet_approved' ) ;
#228 = PERSON_AND_ORGANIZATION_ROLE ( 'creator' ) ;
#229 = AXIS2_PLACEMENT_3D ( 'NONE', #10, #106, #88 ) ;
#230 = DIRECTION ( 'NONE',  ( -0.000000000000000000, -0.000000000000000000, -1.000000000000000000 ) ) ;
#231 = ADVANCED_BREP_SHAPE_REPRESENTATION ( '4134', ( #214, #24 ), #248 ) ;
#232 = ORIENTED_EDGE ( 'NONE', *, *, #197, .F. ) ;
#233 = EDGE_CURVE ( 'NONE', #164, #93, #74, .T. ) ;
#234 = DATE_TIME_ROLE ( 'classification_date' ) ;
#235 = DIRECTION ( 'NONE',  ( 1.000000000000000000, 0.000000000000000000, 0.000000000000000000 ) ) ;
#236 = ADVANCED_FACE ( 'NONE', ( #220 ), #150, .T. ) ;
#237 = ORIENTED_EDGE ( 'NONE', *, *, #107, .T. ) ;
#238 = CARTESIAN_POINT ( 'NONE',  ( 0.000000000000000000, 0.000000000000000000, 0.000000000000000000 ) ) ;
#239 = AXIS2_PLACEMENT_3D ( 'NONE', #60, #103, #58 ) ;
#240 = FACE_OUTER_BOUND ( 'NONE', #130, .T. ) ;
#241 = DIRECTION ( 'NONE',  ( 0.000000000000000000, 0.000000000000000000, 1.000000000000000000 ) ) ;
#242 = CYLINDRICAL_SURFACE ( 'NONE', #239, 7.000000000000000000 ) ;
#243 = APPROVAL_PERSON_ORGANIZATION ( #53, #205, #14 ) ;
#244 = ORIENTED_EDGE ( 'NONE', *, *, #141, .F. ) ;
#245 = CARTESIAN_POINT ( 'NONE',  ( 0.000000000000000000, 0.000000000000000000, 315.0000000000000000 ) ) ;
#246 = AXIS2_PLACEMENT_3D ( 'NONE', #16, #114, #97 ) ;
#247 = CC_DESIGN_PERSON_AND_ORGANIZATION_ASSIGNMENT ( #73, #228, ( #188 ) ) ;
#248 =( GEOMETRIC_REPRESENTATION_CONTEXT ( 3 ) GLOBAL_UNCERTAINTY_ASSIGNED_CONTEXT ( ( #131 ) ) GLOBAL_UNIT_ASSIGNED_CONTEXT ( ( #111, #66, #48 ) ) REPRESENTATION_CONTEXT ( 'NONE', 'WORKASPACE' ) );
#249 = CALENDAR_DATE ( 2023, 12, 2 ) ;
#250 = CARTESIAN_POINT ( 'NONE',  ( -7.000000000000000000, 0.000000000000000000, 5.000000000000000000 ) ) ;
#251 = AXIS2_PLACEMENT_3D ( 'NONE', #28, #123, #104 ) ;
#252 = PERSON_AND_ORGANIZATION_ROLE ( 'creator' ) ;
#253 = EDGE_CURVE ( 'NONE', #76, #101, #11, .T. ) ;
#254 = LINE ( 'NONE', #169, #132 ) ;
#255 = AXIS2_PLACEMENT_3D ( 'NONE', #200, #125, #140 ) ;
ENDSEC;
END-ISO-10303-21;
