ISO-10303-21;
HEADER;
FILE_DESCRIPTION (( 'STEP AP203' ),
    '1' );
FILE_NAME ('b802.STEP',
    '2023-02-12T11:49:57',
    ( '' ),
    ( '' ),
    'SwSTEP 2.0',
    'SolidWorks 2019',
    '' );
FILE_SCHEMA (( 'CONFIG_CONTROL_DESIGN' ));
ENDSEC;

DATA;
#1 = CARTESIAN_POINT ( 'NONE',  ( 0.000000000000000000, 0.000000000000000000, 0.000000000000000000 ) ) ;
#2 = CC_DESIGN_APPROVAL ( #98, ( #179 ) ) ;
#3 = CALENDAR_DATE ( 2023, 12, 2 ) ;
#4 = EDGE_LOOP ( 'NONE', ( #200, #141 ) ) ;
#5 = CC_DESIGN_DATE_AND_TIME_ASSIGNMENT ( #199, #159, ( #36 ) ) ;
#6 = APPROVAL_DATE_TIME ( #142, #58 ) ;
#7 = ORIENTED_EDGE ( 'NONE', *, *, #102, .F. ) ;
#8 = DIRECTION ( 'NONE',  ( 1.000000000000000000, 0.000000000000000000, -0.000000000000000000 ) ) ;
#9 = AXIS2_PLACEMENT_3D ( 'NONE', #236, #160, #128 ) ;
#10 = DIRECTION ( 'NONE',  ( 1.000000000000000000, 0.000000000000000000, 0.000000000000000000 ) ) ;
#11 = CARTESIAN_POINT ( 'NONE',  ( 0.000000000000000000, 0.000000000000000000, 160.0000000000000000 ) ) ;
#12 = LINE ( 'NONE', #134, #229 ) ;
#13 = CARTESIAN_POINT ( 'NONE',  ( 0.000000000000000000, 0.000000000000000000, 160.0000000000000000 ) ) ;
#14 = EDGE_LOOP ( 'NONE', ( #218, #190, #249, #187 ) ) ;
#15 = CC_DESIGN_DATE_AND_TIME_ASSIGNMENT ( #172, #228, ( #131 ) ) ;
#16 = EDGE_LOOP ( 'NONE', ( #39, #106, #178, #83 ) ) ;
#17 = PERSON_AND_ORGANIZATION_ROLE ( 'creator' ) ;
#18 = CIRCLE ( 'NONE', #112, 2.600000000000000089 ) ;
#19 = EDGE_CURVE ( 'NONE', #181, #232, #52, .T. ) ;
#20 = ORIENTED_EDGE ( 'NONE', *, *, #145, .T. ) ;
#21 = APPROVAL_STATUS ( 'not_yet_approved' ) ;
#22 = PLANE ( 'NONE',  #38 ) ;
#23 = ORIENTED_EDGE ( 'NONE', *, *, #68, .F. ) ;
#24 = EDGE_CURVE ( 'NONE', #143, #216, #217, .T. ) ;
#25 = PERSON_AND_ORGANIZATION_ROLE ( 'design_supplier' ) ;
#26 = ORIENTED_EDGE ( 'NONE', *, *, #220, .T. ) ;
#27 = UNCERTAINTY_MEASURE_WITH_UNIT (LENGTH_MEASURE( 1.000000000000000082E-05 ), #70, 'distance_accuracy_value', 'NONE');
#28 = DIRECTION ( 'NONE',  ( -0.000000000000000000, -0.000000000000000000, -1.000000000000000000 ) ) ;
#29 = ADVANCED_FACE ( 'NONE', ( #158 ), #201, .T. ) ;
#30 = CARTESIAN_POINT ( 'NONE',  ( 0.000000000000000000, 0.000000000000000000, 3.000000000000000000 ) ) ;
#31 = DIRECTION ( 'NONE',  ( 1.000000000000000000, 0.000000000000000000, 0.000000000000000000 ) ) ;
#32 = LOCAL_TIME ( 12, 49, 57.00000000000000000, #215 ) ;
#33 = PERSON_AND_ORGANIZATION ( #41, #86 ) ;
#34 = ORIENTED_EDGE ( 'NONE', *, *, #205, .F. ) ;
#35 = CC_DESIGN_PERSON_AND_ORGANIZATION_ASSIGNMENT ( #139, #118, ( #210 ) ) ;
#36 = SECURITY_CLASSIFICATION ( '', '', #161 ) ;
#37 = PERSON_AND_ORGANIZATION ( #41, #86 ) ;
#38 = AXIS2_PLACEMENT_3D ( 'NONE', #60, #126, #8 ) ;
#39 = ORIENTED_EDGE ( 'NONE', *, *, #196, .F. ) ;
#40 = VERTEX_POINT ( 'NONE', #240 ) ;
#41 = PERSON ( 'NEURÈENÝ', 'NEURÈENÝ', 'NEURÈENÝ', ('NEURÈENÝ'), ('NEURÈENÝ'), ('NEURÈENÝ') ) ;
#42 = LINE ( 'NONE', #162, #189 ) ;
#43 = PLANE ( 'NONE',  #95 ) ;
#44 = CARTESIAN_POINT ( 'NONE',  ( 0.000000000000000000, 0.000000000000000000, 3.000000000000000000 ) ) ;
#45 = DIRECTION ( 'NONE',  ( -0.000000000000000000, -0.000000000000000000, -1.000000000000000000 ) ) ;
#46 = PLANE ( 'NONE',  #133 ) ;
#47 = EDGE_CURVE ( 'NONE', #40, #213, #136, .T. ) ;
#48 = CIRCLE ( 'NONE', #254, 2.600000000000000089 ) ;
#49 = DATE_AND_TIME ( #152, #219 ) ;
#50 = COORDINATED_UNIVERSAL_TIME_OFFSET ( 1, 0, .AHEAD. ) ;
#51 = DATE_AND_TIME ( #192, #119 ) ;
#52 = CIRCLE ( 'NONE', #122, 2.600000000000000089 ) ;
#53 = APPROVAL_ROLE ( '' ) ;
#54 = CC_DESIGN_APPROVAL ( #222, ( #131 ) ) ;
#55 = CC_DESIGN_PERSON_AND_ORGANIZATION_ASSIGNMENT ( #197, #103, ( #36 ) ) ;
#56 = FACE_OUTER_BOUND ( 'NONE', #4, .T. ) ;
#57 = DIRECTION ( 'NONE',  ( -1.000000000000000000, 0.000000000000000000, 0.000000000000000000 ) ) ;
#58 = APPROVAL ( #21, 'NEURÈENÝ' ) ;
#59 = COORDINATED_UNIVERSAL_TIME_OFFSET ( 1, 0, .AHEAD. ) ;
#60 = CARTESIAN_POINT ( 'NONE',  ( 0.000000000000000000, 0.000000000000000000, 0.000000000000000000 ) ) ;
#61 = FACE_BOUND ( 'NONE', #166, .T. ) ;
#62 = DIRECTION ( 'NONE',  ( 1.000000000000000000, 0.000000000000000000, 0.000000000000000000 ) ) ;
#63 = PRODUCT_DEFINITION_SHAPE ( 'NONE', 'NONE',  #131 ) ;
#64 = CC_DESIGN_PERSON_AND_ORGANIZATION_ASSIGNMENT ( #33, #116, ( #179 ) ) ;
#65 = CARTESIAN_POINT ( 'NONE',  ( 0.000000000000000000, 0.000000000000000000, 3.000000000000000000 ) ) ;
#66 = DIRECTION ( 'NONE',  ( 0.000000000000000000, 0.000000000000000000, 1.000000000000000000 ) ) ;
#67 = CC_DESIGN_SECURITY_CLASSIFICATION ( #36, ( #179 ) ) ;
#68 = EDGE_CURVE ( 'NONE', #75, #104, #18, .T. ) ;
#69 = AXIS2_PLACEMENT_3D ( 'NONE', #11, #169, #246 ) ;
#70 =( LENGTH_UNIT ( ) NAMED_UNIT ( * ) SI_UNIT ( .MILLI., .METRE. ) );
#71 = LINE ( 'NONE', #132, #211 ) ;
#72 = COORDINATED_UNIVERSAL_TIME_OFFSET ( 1, 0, .AHEAD. ) ;
#73 = EDGE_CURVE ( 'NONE', #75, #232, #42, .T. ) ;
#74 = APPROVAL_STATUS ( 'not_yet_approved' ) ;
#75 = VERTEX_POINT ( 'NONE', #239 ) ;
#76 = EDGE_LOOP ( 'NONE', ( #34, #23, #235, #20 ) ) ;
#77 = PERSON_AND_ORGANIZATION ( #41, #86 ) ;
#78 = DIRECTION ( 'NONE',  ( 1.000000000000000000, 0.000000000000000000, 0.000000000000000000 ) ) ;
#79 = DIRECTION ( 'NONE',  ( 1.000000000000000000, 0.000000000000000000, 0.000000000000000000 ) ) ;
#80 = SHAPE_DEFINITION_REPRESENTATION ( #63, #248 ) ;
#81 = CARTESIAN_POINT ( 'NONE',  ( 0.000000000000000000, 0.000000000000000000, 0.000000000000000000 ) ) ;
#82 = APPLICATION_CONTEXT ( 'configuration controlled 3d designs of mechanical parts and assemblies' ) ;
#83 = ORIENTED_EDGE ( 'NONE', *, *, #73, .F. ) ;
#84 = DIRECTION ( 'NONE',  ( 0.000000000000000000, 0.000000000000000000, 1.000000000000000000 ) ) ;
#85 = ADVANCED_FACE ( 'NONE', ( #146 ), #22, .F. ) ;
#86 = ORGANIZATION ( 'NEURÈENÝ', 'NEURÈENÝ', '' ) ;
#87 = DIRECTION ( 'NONE',  ( -0.000000000000000000, -0.000000000000000000, -1.000000000000000000 ) ) ;
#88 = DIRECTION ( 'NONE',  ( 0.000000000000000000, 0.000000000000000000, 1.000000000000000000 ) ) ;
#89 = DIRECTION ( 'NONE',  ( 0.000000000000000000, 0.000000000000000000, 1.000000000000000000 ) ) ;
#90 = APPLICATION_CONTEXT ( 'configuration controlled 3d designs of mechanical parts and assemblies' ) ;
#91 = AXIS2_PLACEMENT_3D ( 'NONE', #13, #66, #10 ) ;
#92 = DIRECTION ( 'NONE',  ( 0.000000000000000000, 0.000000000000000000, 1.000000000000000000 ) ) ;
#93 = CARTESIAN_POINT ( 'NONE',  ( 5.000000000000000000, 6.123233995736766282E-16, 3.000000000000000000 ) ) ;
#94 = DIRECTION ( 'NONE',  ( 1.000000000000000000, 0.000000000000000000, 0.000000000000000000 ) ) ;
#95 = AXIS2_PLACEMENT_3D ( 'NONE', #123, #100, #177 ) ;
#96 = PERSON_AND_ORGANIZATION ( #41, #86 ) ;
#97 = EDGE_LOOP ( 'NONE', ( #107, #125 ) ) ;
#98 = APPROVAL ( #233, 'NEURÈENÝ' ) ;
#99 = CIRCLE ( 'NONE', #242, 5.000000000000000000 ) ;
#100 = DIRECTION ( 'NONE',  ( 0.000000000000000000, 0.000000000000000000, 1.000000000000000000 ) ) ;
#101 = CARTESIAN_POINT ( 'NONE',  ( 2.600000000000000089, 3.184081677783118191E-16, 160.0000000000000000 ) ) ;
#102 = EDGE_CURVE ( 'NONE', #213, #40, #202, .T. ) ;
#103 = PERSON_AND_ORGANIZATION_ROLE ( 'classification_officer' ) ;
#104 = VERTEX_POINT ( 'NONE', #101 ) ;
#105 = APPROVAL_ROLE ( '' ) ;
#106 = ORIENTED_EDGE ( 'NONE', *, *, #205, .T. ) ;
#107 = ORIENTED_EDGE ( 'NONE', *, *, #68, .T. ) ;
#108 = FACE_OUTER_BOUND ( 'NONE', #117, .T. ) ;
#109 = ADVANCED_FACE ( 'NONE', ( #61, #56 ), #43, .T. ) ;
#110 = CYLINDRICAL_SURFACE ( 'NONE', #237, 5.000000000000000000 ) ;
#111 =( NAMED_UNIT ( * ) SI_UNIT ( $, .STERADIAN. ) SOLID_ANGLE_UNIT ( ) );
#112 = AXIS2_PLACEMENT_3D ( 'NONE', #214, #238, #62 ) ;
#113 = CIRCLE ( 'NONE', #91, 2.600000000000000089 ) ;
#114 = FACE_OUTER_BOUND ( 'NONE', #76, .T. ) ;
#115 = CC_DESIGN_PERSON_AND_ORGANIZATION_ASSIGNMENT ( #156, #25, ( #179 ) ) ;
#116 = PERSON_AND_ORGANIZATION_ROLE ( 'creator' ) ;
#117 = EDGE_LOOP ( 'NONE', ( #198, #26, #155, #140 ) ) ;
#118 = PERSON_AND_ORGANIZATION_ROLE ( 'design_owner' ) ;
#119 = LOCAL_TIME ( 12, 49, 57.00000000000000000, #50 ) ;
#120 = ADVANCED_FACE ( 'NONE', ( #243 ), #110, .T. ) ;
#121 = DESIGN_CONTEXT ( 'detailed design', #90, 'design' ) ;
#122 = AXIS2_PLACEMENT_3D ( 'NONE', #44, #194, #78 ) ;
#123 = CARTESIAN_POINT ( 'NONE',  ( 0.000000000000000000, 0.000000000000000000, 3.000000000000000000 ) ) ;
#124 = DIRECTION ( 'NONE',  ( -0.000000000000000000, -0.000000000000000000, -1.000000000000000000 ) ) ;
#125 = ORIENTED_EDGE ( 'NONE', *, *, #196, .T. ) ;
#126 = DIRECTION ( 'NONE',  ( 0.000000000000000000, 0.000000000000000000, 1.000000000000000000 ) ) ;
#127 = PRODUCT_RELATED_PRODUCT_CATEGORY ( 'detail', '', ( #210 ) ) ;
#128 = DIRECTION ( 'NONE',  ( 1.000000000000000000, 0.000000000000000000, 0.000000000000000000 ) ) ;
#129 = MANIFOLD_SOLID_BREP ( 'Pøidat vysunutím3', #186 ) ;
#130 = APPLICATION_PROTOCOL_DEFINITION ( 'international standard', 'config_control_design', 1994, #82 ) ;
#131 = PRODUCT_DEFINITION ( 'NEZNÁMÝ', '', #179, #121 ) ;
#132 = CARTESIAN_POINT ( 'NONE',  ( -5.000000000000000000, 0.000000000000000000, 3.000000000000000000 ) ) ;
#133 = AXIS2_PLACEMENT_3D ( 'NONE', #244, #88, #227 ) ;
#134 = CARTESIAN_POINT ( 'NONE',  ( 5.000000000000000000, 6.123233995736766282E-16, 3.000000000000000000 ) ) ;
#135 = CYLINDRICAL_SURFACE ( 'NONE', #183, 5.000000000000000000 ) ;
#136 = CIRCLE ( 'NONE', #153, 5.000000000000000000 ) ;
#137 = ADVANCED_FACE ( 'NONE', ( #168 ), #46, .T. ) ;
#138 = APPROVAL_DATE_TIME ( #49, #98 ) ;
#139 = PERSON_AND_ORGANIZATION ( #41, #86 ) ;
#140 = ORIENTED_EDGE ( 'NONE', *, *, #174, .F. ) ;
#141 = ORIENTED_EDGE ( 'NONE', *, *, #250, .T. ) ;
#142 = DATE_AND_TIME ( #175, #32 ) ;
#143 = VERTEX_POINT ( 'NONE', #221 ) ;
#144 = ORIENTED_EDGE ( 'NONE', *, *, #47, .F. ) ;
#145 = EDGE_CURVE ( 'NONE', #232, #181, #48, .T. ) ;
#146 = FACE_OUTER_BOUND ( 'NONE', #180, .T. ) ;
#147 = ADVANCED_FACE ( 'NONE', ( #108 ), #135, .T. ) ;
#148 = DIRECTION ( 'NONE',  ( -0.000000000000000000, -0.000000000000000000, -1.000000000000000000 ) ) ;
#149 = LOCAL_TIME ( 12, 49, 57.00000000000000000, #59 ) ;
#150 = LOCAL_TIME ( 12, 49, 57.00000000000000000, #72 ) ;
#151 = DIRECTION ( 'NONE',  ( -1.000000000000000000, 0.000000000000000000, 0.000000000000000000 ) ) ;
#152 = CALENDAR_DATE ( 2023, 12, 2 ) ;
#153 = AXIS2_PLACEMENT_3D ( 'NONE', #81, #255, #79 ) ;
#154 = APPROVAL_DATE_TIME ( #51, #222 ) ;
#155 = ORIENTED_EDGE ( 'NONE', *, *, #102, .T. ) ;
#156 = PERSON_AND_ORGANIZATION ( #41, #86 ) ;
#157 = ADVANCED_FACE ( 'NONE', ( #114 ), #182, .T. ) ;
#158 = FACE_OUTER_BOUND ( 'NONE', #16, .T. ) ;
#159 = DATE_TIME_ROLE ( 'classification_date' ) ;
#160 = DIRECTION ( 'NONE',  ( 0.000000000000000000, 0.000000000000000000, 1.000000000000000000 ) ) ;
#161 = SECURITY_CLASSIFICATION_LEVEL ( 'unclassified' ) ;
#162 = CARTESIAN_POINT ( 'NONE',  ( -2.600000000000000089, 0.000000000000000000, 160.0000000000000000 ) ) ;
#163 = CARTESIAN_POINT ( 'NONE',  ( 0.000000000000000000, 0.000000000000000000, 160.0000000000000000 ) ) ;
#164 = AXIS2_PLACEMENT_3D ( 'NONE', #1, #84, #212 ) ;
#165 =( GEOMETRIC_REPRESENTATION_CONTEXT ( 3 ) GLOBAL_UNCERTAINTY_ASSIGNED_CONTEXT ( ( #27 ) ) GLOBAL_UNIT_ASSIGNED_CONTEXT ( ( #70, #226, #111 ) ) REPRESENTATION_CONTEXT ( 'NONE', 'WORKASPACE' ) );
#166 = EDGE_LOOP ( 'NONE', ( #252, #176 ) ) ;
#167 = CC_DESIGN_APPROVAL ( #58, ( #36 ) ) ;
#168 = FACE_OUTER_BOUND ( 'NONE', #97, .T. ) ;
#169 = DIRECTION ( 'NONE',  ( -0.000000000000000000, -0.000000000000000000, -1.000000000000000000 ) ) ;
#170 = DIRECTION ( 'NONE',  ( 1.000000000000000000, 0.000000000000000000, 0.000000000000000000 ) ) ;
#171 = CARTESIAN_POINT ( 'NONE',  ( 0.000000000000000000, 0.000000000000000000, 3.000000000000000000 ) ) ;
#172 = DATE_AND_TIME ( #230, #150 ) ;
#173 = APPLICATION_PROTOCOL_DEFINITION ( 'international standard', 'config_control_design', 1994, #90 ) ;
#174 = EDGE_CURVE ( 'NONE', #143, #40, #71, .T. ) ;
#175 = CALENDAR_DATE ( 2023, 12, 2 ) ;
#176 = ORIENTED_EDGE ( 'NONE', *, *, #19, .F. ) ;
#177 = DIRECTION ( 'NONE',  ( 1.000000000000000000, 0.000000000000000000, -0.000000000000000000 ) ) ;
#178 = ORIENTED_EDGE ( 'NONE', *, *, #19, .T. ) ;
#179 = PRODUCT_DEFINITION_FORMATION_WITH_SPECIFIED_SOURCE ( 'LIBOVOLNÝ', '', #210, .NOT_KNOWN. ) ;
#180 = EDGE_LOOP ( 'NONE', ( #144, #7 ) ) ;
#181 = VERTEX_POINT ( 'NONE', #245 ) ;
#182 = CYLINDRICAL_SURFACE ( 'NONE', #69, 2.600000000000000089 ) ;
#183 = AXIS2_PLACEMENT_3D ( 'NONE', #171, #45, #203 ) ;
#184 = LINE ( 'NONE', #206, #208 ) ;
#185 = CARTESIAN_POINT ( 'NONE',  ( 0.000000000000000000, 0.000000000000000000, 3.000000000000000000 ) ) ;
#186 = CLOSED_SHELL ( 'NONE', ( #29, #147, #120, #109, #85, #157, #137 ) ) ;
#187 = ORIENTED_EDGE ( 'NONE', *, *, #47, .T. ) ;
#188 = MECHANICAL_CONTEXT ( 'NONE', #82, 'mechanical' ) ;
#189 = VECTOR ( 'NONE', #195, 1000.000000000000000 ) ;
#190 = ORIENTED_EDGE ( 'NONE', *, *, #24, .F. ) ;
#191 = CARTESIAN_POINT ( 'NONE',  ( 0.000000000000000000, 0.000000000000000000, 0.000000000000000000 ) ) ;
#192 = CALENDAR_DATE ( 2023, 12, 2 ) ;
#193 = AXIS2_PLACEMENT_3D ( 'NONE', #191, #253, #94 ) ;
#194 = DIRECTION ( 'NONE',  ( 0.000000000000000000, 0.000000000000000000, 1.000000000000000000 ) ) ;
#195 = DIRECTION ( 'NONE',  ( -0.000000000000000000, -0.000000000000000000, -1.000000000000000000 ) ) ;
#196 = EDGE_CURVE ( 'NONE', #104, #75, #113, .T. ) ;
#197 = PERSON_AND_ORGANIZATION ( #41, #86 ) ;
#198 = ORIENTED_EDGE ( 'NONE', *, *, #250, .F. ) ;
#199 = DATE_AND_TIME ( #3, #149 ) ;
#200 = ORIENTED_EDGE ( 'NONE', *, *, #24, .T. ) ;
#201 = CYLINDRICAL_SURFACE ( 'NONE', #241, 2.600000000000000089 ) ;
#202 = CIRCLE ( 'NONE', #164, 5.000000000000000000 ) ;
#203 = DIRECTION ( 'NONE',  ( -1.000000000000000000, 0.000000000000000000, 0.000000000000000000 ) ) ;
#204 = DIRECTION ( 'NONE',  ( -0.000000000000000000, -0.000000000000000000, -1.000000000000000000 ) ) ;
#205 = EDGE_CURVE ( 'NONE', #104, #181, #184, .T. ) ;
#206 = CARTESIAN_POINT ( 'NONE',  ( 2.600000000000000089, 3.184081677783118191E-16, 160.0000000000000000 ) ) ;
#207 = CARTESIAN_POINT ( 'NONE',  ( -2.600000000000000089, 0.000000000000000000, 3.000000000000000000 ) ) ;
#208 = VECTOR ( 'NONE', #148, 1000.000000000000000 ) ;
#209 = CC_DESIGN_PERSON_AND_ORGANIZATION_ASSIGNMENT ( #96, #17, ( #131 ) ) ;
#210 = PRODUCT ( 'b802', 'b802', '', ( #188 ) ) ;
#211 = VECTOR ( 'NONE', #28, 1000.000000000000000 ) ;
#212 = DIRECTION ( 'NONE',  ( 1.000000000000000000, 0.000000000000000000, 0.000000000000000000 ) ) ;
#213 = VERTEX_POINT ( 'NONE', #224 ) ;
#214 = CARTESIAN_POINT ( 'NONE',  ( 0.000000000000000000, 0.000000000000000000, 160.0000000000000000 ) ) ;
#215 = COORDINATED_UNIVERSAL_TIME_OFFSET ( 1, 0, .AHEAD. ) ;
#216 = VERTEX_POINT ( 'NONE', #93 ) ;
#217 = CIRCLE ( 'NONE', #9, 5.000000000000000000 ) ;
#218 = ORIENTED_EDGE ( 'NONE', *, *, #220, .F. ) ;
#219 = LOCAL_TIME ( 12, 49, 57.00000000000000000, #247 ) ;
#220 = EDGE_CURVE ( 'NONE', #216, #213, #12, .T. ) ;
#221 = CARTESIAN_POINT ( 'NONE',  ( -5.000000000000000000, 0.000000000000000000, 3.000000000000000000 ) ) ;
#222 = APPROVAL ( #74, 'NEURÈENÝ' ) ;
#223 = APPROVAL_PERSON_ORGANIZATION ( #77, #58, #105 ) ;
#224 = CARTESIAN_POINT ( 'NONE',  ( 5.000000000000000000, 6.123233995736766282E-16, 0.000000000000000000 ) ) ;
#225 = APPROVAL_PERSON_ORGANIZATION ( #37, #222, #251 ) ;
#226 =( NAMED_UNIT ( * ) PLANE_ANGLE_UNIT ( ) SI_UNIT ( $, .RADIAN. ) );
#227 = DIRECTION ( 'NONE',  ( 1.000000000000000000, 0.000000000000000000, -0.000000000000000000 ) ) ;
#228 = DATE_TIME_ROLE ( 'creation_date' ) ;
#229 = VECTOR ( 'NONE', #204, 1000.000000000000000 ) ;
#230 = CALENDAR_DATE ( 2023, 12, 2 ) ;
#231 = PERSON_AND_ORGANIZATION ( #41, #86 ) ;
#232 = VERTEX_POINT ( 'NONE', #207 ) ;
#233 = APPROVAL_STATUS ( 'not_yet_approved' ) ;
#234 = APPROVAL_PERSON_ORGANIZATION ( #231, #98, #53 ) ;
#235 = ORIENTED_EDGE ( 'NONE', *, *, #73, .T. ) ;
#236 = CARTESIAN_POINT ( 'NONE',  ( 0.000000000000000000, 0.000000000000000000, 3.000000000000000000 ) ) ;
#237 = AXIS2_PLACEMENT_3D ( 'NONE', #30, #87, #151 ) ;
#238 = DIRECTION ( 'NONE',  ( 0.000000000000000000, 0.000000000000000000, 1.000000000000000000 ) ) ;
#239 = CARTESIAN_POINT ( 'NONE',  ( -2.600000000000000089, 0.000000000000000000, 160.0000000000000000 ) ) ;
#240 = CARTESIAN_POINT ( 'NONE',  ( -5.000000000000000000, 0.000000000000000000, 0.000000000000000000 ) ) ;
#241 = AXIS2_PLACEMENT_3D ( 'NONE', #163, #124, #57 ) ;
#242 = AXIS2_PLACEMENT_3D ( 'NONE', #185, #89, #170 ) ;
#243 = FACE_OUTER_BOUND ( 'NONE', #14, .T. ) ;
#244 = CARTESIAN_POINT ( 'NONE',  ( 0.000000000000000000, 0.000000000000000000, 160.0000000000000000 ) ) ;
#245 = CARTESIAN_POINT ( 'NONE',  ( 2.600000000000000089, 3.184081677783118191E-16, 3.000000000000000000 ) ) ;
#246 = DIRECTION ( 'NONE',  ( -1.000000000000000000, 0.000000000000000000, 0.000000000000000000 ) ) ;
#247 = COORDINATED_UNIVERSAL_TIME_OFFSET ( 1, 0, .AHEAD. ) ;
#248 = ADVANCED_BREP_SHAPE_REPRESENTATION ( 'b802', ( #129, #193 ), #165 ) ;
#249 = ORIENTED_EDGE ( 'NONE', *, *, #174, .T. ) ;
#250 = EDGE_CURVE ( 'NONE', #216, #143, #99, .T. ) ;
#251 = APPROVAL_ROLE ( '' ) ;
#252 = ORIENTED_EDGE ( 'NONE', *, *, #145, .F. ) ;
#253 = DIRECTION ( 'NONE',  ( 0.000000000000000000, 0.000000000000000000, 1.000000000000000000 ) ) ;
#254 = AXIS2_PLACEMENT_3D ( 'NONE', #65, #92, #31 ) ;
#255 = DIRECTION ( 'NONE',  ( 0.000000000000000000, 0.000000000000000000, 1.000000000000000000 ) ) ;
ENDSEC;
END-ISO-10303-21;
