ISO-10303-21;
HEADER;
FILE_DESCRIPTION (( 'STEP AP203' ),
    '1' );
FILE_NAME ('a0d2.STEP',
    '2023-02-12T11:32:19',
    ( '' ),
    ( '' ),
    'SwSTEP 2.0',
    'SolidWorks 2019',
    '' );
FILE_SCHEMA (( 'CONFIG_CONTROL_DESIGN' ));
ENDSEC;

DATA;
#1 = ORIENTED_EDGE ( 'NONE', *, *, #133, .F. ) ;
#2 = DIRECTION ( 'NONE',  ( -0.000000000000000000, -0.000000000000000000, -1.000000000000000000 ) ) ;
#3 = CARTESIAN_POINT ( 'NONE',  ( 3.100000000000000089, 3.796405077356793932E-16, 400.0000000000000000 ) ) ;
#4 = CARTESIAN_POINT ( 'NONE',  ( 0.000000000000000000, 0.000000000000000000, 0.000000000000000000 ) ) ;
#5 = DIRECTION ( 'NONE',  ( -0.000000000000000000, -0.000000000000000000, -1.000000000000000000 ) ) ;
#6 = AXIS2_PLACEMENT_3D ( 'NONE', #90, #243, #164 ) ;
#7 = LOCAL_TIME ( 12, 32, 19.00000000000000000, #207 ) ;
#8 = DIRECTION ( 'NONE',  ( 1.000000000000000000, 0.000000000000000000, 0.000000000000000000 ) ) ;
#9 = EDGE_CURVE ( 'NONE', #194, #195, #177, .T. ) ;
#10 = CARTESIAN_POINT ( 'NONE',  ( 3.100000000000000089, 3.796405077356793932E-16, 400.0000000000000000 ) ) ;
#11 = FACE_OUTER_BOUND ( 'NONE', #178, .T. ) ;
#12 = APPROVAL ( #132, 'NEURÈENÝ' ) ;
#13 = DIRECTION ( 'NONE',  ( 0.000000000000000000, 0.000000000000000000, 1.000000000000000000 ) ) ;
#14 =( NAMED_UNIT ( * ) SI_UNIT ( $, .STERADIAN. ) SOLID_ANGLE_UNIT ( ) );
#15 = DIRECTION ( 'NONE',  ( -0.000000000000000000, -0.000000000000000000, -1.000000000000000000 ) ) ;
#16 = MECHANICAL_CONTEXT ( 'NONE', #58, 'mechanical' ) ;
#17 = PRODUCT_RELATED_PRODUCT_CATEGORY ( 'detail', '', ( #73 ) ) ;
#18 = PERSON_AND_ORGANIZATION ( #30, #182 ) ;
#19 = PERSON_AND_ORGANIZATION ( #30, #182 ) ;
#20 = PRODUCT_DEFINITION_FORMATION_WITH_SPECIFIED_SOURCE ( 'LIBOVOLNÝ', '', #73, .NOT_KNOWN. ) ;
#21 = ORIENTED_EDGE ( 'NONE', *, *, #46, .T. ) ;
#22 = DIRECTION ( 'NONE',  ( -0.000000000000000000, -0.000000000000000000, -1.000000000000000000 ) ) ;
#23 = AXIS2_PLACEMENT_3D ( 'NONE', #145, #213, #61 ) ;
#24 = CARTESIAN_POINT ( 'NONE',  ( -3.100000000000000089, 0.000000000000000000, 400.0000000000000000 ) ) ;
#25 = ADVANCED_FACE ( 'NONE', ( #196 ), #216, .T. ) ;
#26 = DIRECTION ( 'NONE',  ( -1.000000000000000000, 0.000000000000000000, 0.000000000000000000 ) ) ;
#27 = CC_DESIGN_SECURITY_CLASSIFICATION ( #189, ( #20 ) ) ;
#28 = CC_DESIGN_APPROVAL ( #229, ( #20 ) ) ;
#29 = CARTESIAN_POINT ( 'NONE',  ( 0.000000000000000000, 0.000000000000000000, 5.000000000000000000 ) ) ;
#30 = PERSON ( 'NEURÈENÝ', 'NEURÈENÝ', 'NEURÈENÝ', ('NEURÈENÝ'), ('NEURÈENÝ'), ('NEURÈENÝ') ) ;
#31 =( NAMED_UNIT ( * ) PLANE_ANGLE_UNIT ( ) SI_UNIT ( $, .RADIAN. ) );
#32 = DIRECTION ( 'NONE',  ( 1.000000000000000000, 0.000000000000000000, 0.000000000000000000 ) ) ;
#33 = CIRCLE ( 'NONE', #220, 6.000000000000000888 ) ;
#34 = LINE ( 'NONE', #246, #38 ) ;
#35 = CALENDAR_DATE ( 2023, 12, 2 ) ;
#36 = CC_DESIGN_PERSON_AND_ORGANIZATION_ASSIGNMENT ( #190, #170, ( #20 ) ) ;
#37 = APPROVAL_STATUS ( 'not_yet_approved' ) ;
#38 = VECTOR ( 'NONE', #15, 1000.000000000000000 ) ;
#39 = DATE_AND_TIME ( #35, #147 ) ;
#40 = VERTEX_POINT ( 'NONE', #122 ) ;
#41 = COORDINATED_UNIVERSAL_TIME_OFFSET ( 1, 0, .AHEAD. ) ;
#42 = PERSON_AND_ORGANIZATION ( #30, #182 ) ;
#43 = VERTEX_POINT ( 'NONE', #179 ) ;
#44 = ORIENTED_EDGE ( 'NONE', *, *, #205, .T. ) ;
#45 = DIRECTION ( 'NONE',  ( 1.000000000000000000, 0.000000000000000000, -0.000000000000000000 ) ) ;
#46 = EDGE_CURVE ( 'NONE', #232, #158, #79, .T. ) ;
#47 = CIRCLE ( 'NONE', #84, 3.100000000000000089 ) ;
#48 =( GEOMETRIC_REPRESENTATION_CONTEXT ( 3 ) GLOBAL_UNCERTAINTY_ASSIGNED_CONTEXT ( ( #143 ) ) GLOBAL_UNIT_ASSIGNED_CONTEXT ( ( #183, #31, #14 ) ) REPRESENTATION_CONTEXT ( 'NONE', 'WORKASPACE' ) );
#49 = ORIENTED_EDGE ( 'NONE', *, *, #60, .F. ) ;
#50 = CARTESIAN_POINT ( 'NONE',  ( 0.000000000000000000, 0.000000000000000000, 5.000000000000000000 ) ) ;
#51 = DIRECTION ( 'NONE',  ( 1.000000000000000000, 0.000000000000000000, 0.000000000000000000 ) ) ;
#52 = AXIS2_PLACEMENT_3D ( 'NONE', #4, #236, #8 ) ;
#53 = APPLICATION_PROTOCOL_DEFINITION ( 'international standard', 'config_control_design', 1994, #58 ) ;
#54 = COORDINATED_UNIVERSAL_TIME_OFFSET ( 1, 0, .AHEAD. ) ;
#55 = APPROVAL_STATUS ( 'not_yet_approved' ) ;
#56 = CC_DESIGN_DATE_AND_TIME_ASSIGNMENT ( #192, #175, ( #189 ) ) ;
#57 = PERSON_AND_ORGANIZATION ( #30, #182 ) ;
#58 = APPLICATION_CONTEXT ( 'configuration controlled 3d designs of mechanical parts and assemblies' ) ;
#59 = CALENDAR_DATE ( 2023, 12, 2 ) ;
#60 = EDGE_CURVE ( 'NONE', #198, #141, #160, .T. ) ;
#61 = DIRECTION ( 'NONE',  ( 1.000000000000000000, 0.000000000000000000, 0.000000000000000000 ) ) ;
#62 = EDGE_LOOP ( 'NONE', ( #77, #255 ) ) ;
#63 = ORIENTED_EDGE ( 'NONE', *, *, #233, .F. ) ;
#64 = EDGE_CURVE ( 'NONE', #40, #141, #47, .T. ) ;
#65 = DIRECTION ( 'NONE',  ( 1.000000000000000000, 0.000000000000000000, 0.000000000000000000 ) ) ;
#66 = DIRECTION ( 'NONE',  ( 1.000000000000000000, 0.000000000000000000, 0.000000000000000000 ) ) ;
#67 = CARTESIAN_POINT ( 'NONE',  ( 0.000000000000000000, 0.000000000000000000, 5.000000000000000000 ) ) ;
#68 = DIRECTION ( 'NONE',  ( -1.000000000000000000, 0.000000000000000000, 0.000000000000000000 ) ) ;
#69 = AXIS2_PLACEMENT_3D ( 'NONE', #197, #5, #26 ) ;
#70 = EDGE_CURVE ( 'NONE', #43, #198, #223, .T. ) ;
#71 = CARTESIAN_POINT ( 'NONE',  ( 6.000000000000000888, 7.347880794884120722E-16, 0.000000000000000000 ) ) ;
#72 = DATE_AND_TIME ( #59, #234 ) ;
#73 = PRODUCT ( 'a0d2', 'a0d2', '', ( #16 ) ) ;
#74 = ORIENTED_EDGE ( 'NONE', *, *, #87, .F. ) ;
#75 = APPROVAL_PERSON_ORGANIZATION ( #98, #229, #251 ) ;
#76 = CALENDAR_DATE ( 2023, 12, 2 ) ;
#77 = ORIENTED_EDGE ( 'NONE', *, *, #70, .T. ) ;
#78 = CC_DESIGN_PERSON_AND_ORGANIZATION_ASSIGNMENT ( #18, #230, ( #124 ) ) ;
#79 = CIRCLE ( 'NONE', #52, 6.000000000000000888 ) ;
#80 = DIRECTION ( 'NONE',  ( 0.000000000000000000, 0.000000000000000000, 1.000000000000000000 ) ) ;
#81 = CIRCLE ( 'NONE', #108, 3.100000000000000089 ) ;
#82 = ORIENTED_EDGE ( 'NONE', *, *, #64, .T. ) ;
#83 = CARTESIAN_POINT ( 'NONE',  ( 0.000000000000000000, 0.000000000000000000, 400.0000000000000000 ) ) ;
#84 = AXIS2_PLACEMENT_3D ( 'NONE', #85, #80, #66 ) ;
#85 = CARTESIAN_POINT ( 'NONE',  ( 0.000000000000000000, 0.000000000000000000, 5.000000000000000000 ) ) ;
#86 = DESIGN_CONTEXT ( 'detailed design', #231, 'design' ) ;
#87 = EDGE_CURVE ( 'NONE', #43, #40, #218, .T. ) ;
#88 = DIRECTION ( 'NONE',  ( 0.000000000000000000, 0.000000000000000000, 1.000000000000000000 ) ) ;
#89 = VECTOR ( 'NONE', #219, 1000.000000000000000 ) ;
#90 = CARTESIAN_POINT ( 'NONE',  ( 0.000000000000000000, 0.000000000000000000, 5.000000000000000000 ) ) ;
#91 = CC_DESIGN_DATE_AND_TIME_ASSIGNMENT ( #72, #131, ( #124 ) ) ;
#92 = PRODUCT_DEFINITION_SHAPE ( 'NONE', 'NONE',  #124 ) ;
#93 = CYLINDRICAL_SURFACE ( 'NONE', #118, 6.000000000000000888 ) ;
#94 = APPROVAL_DATE_TIME ( #206, #229 ) ;
#95 = DIRECTION ( 'NONE',  ( 1.000000000000000000, 0.000000000000000000, 0.000000000000000000 ) ) ;
#96 = ORIENTED_EDGE ( 'NONE', *, *, #9, .T. ) ;
#97 = ADVANCED_FACE ( 'NONE', ( #102 ), #106, .T. ) ;
#98 = PERSON_AND_ORGANIZATION ( #30, #182 ) ;
#99 = PERSON_AND_ORGANIZATION_ROLE ( 'classification_officer' ) ;
#100 = ORIENTED_EDGE ( 'NONE', *, *, #70, .F. ) ;
#101 = ADVANCED_FACE ( 'NONE', ( #214 ), #235, .T. ) ;
#102 = FACE_OUTER_BOUND ( 'NONE', #171, .T. ) ;
#103 = VECTOR ( 'NONE', #139, 1000.000000000000000 ) ;
#104 = FACE_OUTER_BOUND ( 'NONE', #250, .T. ) ;
#105 = ADVANCED_FACE ( 'NONE', ( #119, #104 ), #120, .T. ) ;
#106 = CYLINDRICAL_SURFACE ( 'NONE', #215, 3.100000000000000089 ) ;
#107 = ORIENTED_EDGE ( 'NONE', *, *, #60, .T. ) ;
#108 = AXIS2_PLACEMENT_3D ( 'NONE', #222, #88, #51 ) ;
#109 = DIRECTION ( 'NONE',  ( 0.000000000000000000, 0.000000000000000000, 1.000000000000000000 ) ) ;
#110 = ADVANCED_FACE ( 'NONE', ( #11 ), #148, .T. ) ;
#111 = DIRECTION ( 'NONE',  ( -0.000000000000000000, -0.000000000000000000, -1.000000000000000000 ) ) ;
#112 = CC_DESIGN_PERSON_AND_ORGANIZATION_ASSIGNMENT ( #57, #134, ( #20 ) ) ;
#113 = CARTESIAN_POINT ( 'NONE',  ( 0.000000000000000000, 0.000000000000000000, 0.000000000000000000 ) ) ;
#114 = APPROVAL_DATE_TIME ( #188, #165 ) ;
#115 = PERSON_AND_ORGANIZATION ( #30, #182 ) ;
#116 = CALENDAR_DATE ( 2023, 12, 2 ) ;
#117 = EDGE_LOOP ( 'NONE', ( #181, #107, #121, #74 ) ) ;
#118 = AXIS2_PLACEMENT_3D ( 'NONE', #166, #111, #68 ) ;
#119 = FACE_BOUND ( 'NONE', #252, .T. ) ;
#120 = PLANE ( 'NONE',  #253 ) ;
#121 = ORIENTED_EDGE ( 'NONE', *, *, #133, .T. ) ;
#122 = CARTESIAN_POINT ( 'NONE',  ( -3.100000000000000089, 0.000000000000000000, 5.000000000000000000 ) ) ;
#123 = CARTESIAN_POINT ( 'NONE',  ( 0.000000000000000000, 0.000000000000000000, 400.0000000000000000 ) ) ;
#124 = PRODUCT_DEFINITION ( 'NEZNÁMÝ', '', #20, #86 ) ;
#125 = LOCAL_TIME ( 12, 32, 19.00000000000000000, #227 ) ;
#126 = CARTESIAN_POINT ( 'NONE',  ( 3.100000000000000089, 3.796405077356793932E-16, 5.000000000000000000 ) ) ;
#127 = DIRECTION ( 'NONE',  ( 0.000000000000000000, 0.000000000000000000, 1.000000000000000000 ) ) ;
#128 = ADVANCED_FACE ( 'NONE', ( #202 ), #93, .T. ) ;
#129 = CARTESIAN_POINT ( 'NONE',  ( 0.000000000000000000, 0.000000000000000000, 0.000000000000000000 ) ) ;
#130 = DIRECTION ( 'NONE',  ( 1.000000000000000000, 0.000000000000000000, -0.000000000000000000 ) ) ;
#131 = DATE_TIME_ROLE ( 'creation_date' ) ;
#132 = APPROVAL_STATUS ( 'not_yet_approved' ) ;
#133 = EDGE_CURVE ( 'NONE', #141, #40, #81, .T. ) ;
#134 = PERSON_AND_ORGANIZATION_ROLE ( 'creator' ) ;
#135 = ORIENTED_EDGE ( 'NONE', *, *, #140, .T. ) ;
#136 = ORIENTED_EDGE ( 'NONE', *, *, #87, .T. ) ;
#137 = CIRCLE ( 'NONE', #210, 6.000000000000000888 ) ;
#138 = DIRECTION ( 'NONE',  ( 0.000000000000000000, 0.000000000000000000, 1.000000000000000000 ) ) ;
#139 = DIRECTION ( 'NONE',  ( -0.000000000000000000, -0.000000000000000000, -1.000000000000000000 ) ) ;
#140 = EDGE_CURVE ( 'NONE', #158, #232, #137, .T. ) ;
#141 = VERTEX_POINT ( 'NONE', #126 ) ;
#142 = AXIS2_PLACEMENT_3D ( 'NONE', #162, #127, #199 ) ;
#143 = UNCERTAINTY_MEASURE_WITH_UNIT (LENGTH_MEASURE( 1.000000000000000082E-05 ), #183, 'distance_accuracy_value', 'NONE');
#144 = ORIENTED_EDGE ( 'NONE', *, *, #46, .F. ) ;
#145 = CARTESIAN_POINT ( 'NONE',  ( 0.000000000000000000, 0.000000000000000000, 400.0000000000000000 ) ) ;
#146 = CARTESIAN_POINT ( 'NONE',  ( 6.000000000000000888, 7.347880794884120722E-16, 5.000000000000000000 ) ) ;
#147 = LOCAL_TIME ( 12, 32, 19.00000000000000000, #54 ) ;
#148 = CYLINDRICAL_SURFACE ( 'NONE', #6, 6.000000000000000888 ) ;
#149 = CARTESIAN_POINT ( 'NONE',  ( -6.000000000000000888, 0.000000000000000000, 5.000000000000000000 ) ) ;
#150 = LOCAL_TIME ( 12, 32, 19.00000000000000000, #204 ) ;
#151 = CARTESIAN_POINT ( 'NONE',  ( -6.000000000000000888, 0.000000000000000000, 5.000000000000000000 ) ) ;
#152 = EDGE_CURVE ( 'NONE', #195, #194, #33, .T. ) ;
#153 = SECURITY_CLASSIFICATION_LEVEL ( 'unclassified' ) ;
#154 = CALENDAR_DATE ( 2023, 12, 2 ) ;
#155 = PERSON_AND_ORGANIZATION_ROLE ( 'design_owner' ) ;
#156 = EDGE_LOOP ( 'NONE', ( #212, #44, #21, #63 ) ) ;
#157 = APPROVAL_DATE_TIME ( #39, #12 ) ;
#158 = VERTEX_POINT ( 'NONE', #187 ) ;
#159 = DIRECTION ( 'NONE',  ( -1.000000000000000000, 0.000000000000000000, 0.000000000000000000 ) ) ;
#160 = LINE ( 'NONE', #3, #103 ) ;
#161 = ORIENTED_EDGE ( 'NONE', *, *, #140, .F. ) ;
#162 = CARTESIAN_POINT ( 'NONE',  ( 0.000000000000000000, 0.000000000000000000, 0.000000000000000000 ) ) ;
#163 = DIRECTION ( 'NONE',  ( 1.000000000000000000, 0.000000000000000000, 0.000000000000000000 ) ) ;
#164 = DIRECTION ( 'NONE',  ( -1.000000000000000000, 0.000000000000000000, 0.000000000000000000 ) ) ;
#165 = APPROVAL ( #55, 'NEURÈENÝ' ) ;
#166 = CARTESIAN_POINT ( 'NONE',  ( 0.000000000000000000, 0.000000000000000000, 5.000000000000000000 ) ) ;
#167 = DIRECTION ( 'NONE',  ( 0.000000000000000000, 0.000000000000000000, 1.000000000000000000 ) ) ;
#168 = CC_DESIGN_PERSON_AND_ORGANIZATION_ASSIGNMENT ( #19, #155, ( #73 ) ) ;
#169 = AXIS2_PLACEMENT_3D ( 'NONE', #129, #200, #95 ) ;
#170 = PERSON_AND_ORGANIZATION_ROLE ( 'design_supplier' ) ;
#171 = EDGE_LOOP ( 'NONE', ( #49, #100, #136, #82 ) ) ;
#172 = APPLICATION_PROTOCOL_DEFINITION ( 'international standard', 'config_control_design', 1994, #231 ) ;
#173 = EDGE_LOOP ( 'NONE', ( #161, #144 ) ) ;
#174 = APPROVAL_PERSON_ORGANIZATION ( #254, #165, #249 ) ;
#175 = DATE_TIME_ROLE ( 'classification_date' ) ;
#176 = CARTESIAN_POINT ( 'NONE',  ( 0.000000000000000000, 0.000000000000000000, 400.0000000000000000 ) ) ;
#177 = CIRCLE ( 'NONE', #208, 6.000000000000000888 ) ;
#178 = EDGE_LOOP ( 'NONE', ( #209, #180, #217, #135 ) ) ;
#179 = CARTESIAN_POINT ( 'NONE',  ( -3.100000000000000089, 0.000000000000000000, 400.0000000000000000 ) ) ;
#180 = ORIENTED_EDGE ( 'NONE', *, *, #9, .F. ) ;
#181 = ORIENTED_EDGE ( 'NONE', *, *, #211, .F. ) ;
#182 = ORGANIZATION ( 'NEURÈENÝ', 'NEURÈENÝ', '' ) ;
#183 =( LENGTH_UNIT ( ) NAMED_UNIT ( * ) SI_UNIT ( .MILLI., .METRE. ) );
#184 = VECTOR ( 'NONE', #22, 1000.000000000000000 ) ;
#185 = DIRECTION ( 'NONE',  ( 1.000000000000000000, 0.000000000000000000, 0.000000000000000000 ) ) ;
#186 = CC_DESIGN_APPROVAL ( #165, ( #124 ) ) ;
#187 = CARTESIAN_POINT ( 'NONE',  ( -6.000000000000000888, 0.000000000000000000, 0.000000000000000000 ) ) ;
#188 = DATE_AND_TIME ( #154, #7 ) ;
#189 = SECURITY_CLASSIFICATION ( '', '', #153 ) ;
#190 = PERSON_AND_ORGANIZATION ( #30, #182 ) ;
#191 = SHAPE_DEFINITION_REPRESENTATION ( #92, #241 ) ;
#192 = DATE_AND_TIME ( #76, #125 ) ;
#193 = ORIENTED_EDGE ( 'NONE', *, *, #152, .T. ) ;
#194 = VERTEX_POINT ( 'NONE', #149 ) ;
#195 = VERTEX_POINT ( 'NONE', #146 ) ;
#196 = FACE_OUTER_BOUND ( 'NONE', #117, .T. ) ;
#197 = CARTESIAN_POINT ( 'NONE',  ( 0.000000000000000000, 0.000000000000000000, 400.0000000000000000 ) ) ;
#198 = VERTEX_POINT ( 'NONE', #10 ) ;
#199 = DIRECTION ( 'NONE',  ( 1.000000000000000000, 0.000000000000000000, -0.000000000000000000 ) ) ;
#200 = DIRECTION ( 'NONE',  ( 0.000000000000000000, 0.000000000000000000, 1.000000000000000000 ) ) ;
#201 = CIRCLE ( 'NONE', #248, 3.100000000000000089 ) ;
#202 = FACE_OUTER_BOUND ( 'NONE', #156, .T. ) ;
#203 = MANIFOLD_SOLID_BREP ( 'Pøidat vysunutím3', #242 ) ;
#204 = COORDINATED_UNIVERSAL_TIME_OFFSET ( 1, 0, .AHEAD. ) ;
#205 = EDGE_CURVE ( 'NONE', #195, #232, #34, .T. ) ;
#206 = DATE_AND_TIME ( #116, #150 ) ;
#207 = COORDINATED_UNIVERSAL_TIME_OFFSET ( 1, 0, .AHEAD. ) ;
#208 = AXIS2_PLACEMENT_3D ( 'NONE', #50, #239, #65 ) ;
#209 = ORIENTED_EDGE ( 'NONE', *, *, #205, .F. ) ;
#210 = AXIS2_PLACEMENT_3D ( 'NONE', #113, #109, #163 ) ;
#211 = EDGE_CURVE ( 'NONE', #198, #43, #201, .T. ) ;
#212 = ORIENTED_EDGE ( 'NONE', *, *, #152, .F. ) ;
#213 = DIRECTION ( 'NONE',  ( 0.000000000000000000, 0.000000000000000000, 1.000000000000000000 ) ) ;
#214 = FACE_OUTER_BOUND ( 'NONE', #62, .T. ) ;
#215 = AXIS2_PLACEMENT_3D ( 'NONE', #176, #2, #159 ) ;
#216 = CYLINDRICAL_SURFACE ( 'NONE', #69, 3.100000000000000089 ) ;
#217 = ORIENTED_EDGE ( 'NONE', *, *, #233, .T. ) ;
#218 = LINE ( 'NONE', #24, #184 ) ;
#219 = DIRECTION ( 'NONE',  ( -0.000000000000000000, -0.000000000000000000, -1.000000000000000000 ) ) ;
#220 = AXIS2_PLACEMENT_3D ( 'NONE', #67, #167, #32 ) ;
#221 = ADVANCED_FACE ( 'NONE', ( #224 ), #247, .F. ) ;
#222 = CARTESIAN_POINT ( 'NONE',  ( 0.000000000000000000, 0.000000000000000000, 5.000000000000000000 ) ) ;
#223 = CIRCLE ( 'NONE', #23, 3.100000000000000089 ) ;
#224 = FACE_OUTER_BOUND ( 'NONE', #173, .T. ) ;
#225 = DIRECTION ( 'NONE',  ( 0.000000000000000000, 0.000000000000000000, 1.000000000000000000 ) ) ;
#226 = APPROVAL_ROLE ( '' ) ;
#227 = COORDINATED_UNIVERSAL_TIME_OFFSET ( 1, 0, .AHEAD. ) ;
#228 = AXIS2_PLACEMENT_3D ( 'NONE', #83, #138, #45 ) ;
#229 = APPROVAL ( #37, 'NEURÈENÝ' ) ;
#230 = PERSON_AND_ORGANIZATION_ROLE ( 'creator' ) ;
#231 = APPLICATION_CONTEXT ( 'configuration controlled 3d designs of mechanical parts and assemblies' ) ;
#232 = VERTEX_POINT ( 'NONE', #71 ) ;
#233 = EDGE_CURVE ( 'NONE', #194, #158, #245, .T. ) ;
#234 = LOCAL_TIME ( 12, 32, 19.00000000000000000, #41 ) ;
#235 = PLANE ( 'NONE',  #228 ) ;
#236 = DIRECTION ( 'NONE',  ( 0.000000000000000000, 0.000000000000000000, 1.000000000000000000 ) ) ;
#237 = CC_DESIGN_APPROVAL ( #12, ( #189 ) ) ;
#238 = ORIENTED_EDGE ( 'NONE', *, *, #64, .F. ) ;
#239 = DIRECTION ( 'NONE',  ( 0.000000000000000000, 0.000000000000000000, 1.000000000000000000 ) ) ;
#240 = CC_DESIGN_PERSON_AND_ORGANIZATION_ASSIGNMENT ( #42, #99, ( #189 ) ) ;
#241 = ADVANCED_BREP_SHAPE_REPRESENTATION ( 'a0d2', ( #203, #169 ), #48 ) ;
#242 = CLOSED_SHELL ( 'NONE', ( #25, #128, #110, #105, #221, #97, #101 ) ) ;
#243 = DIRECTION ( 'NONE',  ( -0.000000000000000000, -0.000000000000000000, -1.000000000000000000 ) ) ;
#244 = APPROVAL_PERSON_ORGANIZATION ( #115, #12, #226 ) ;
#245 = LINE ( 'NONE', #151, #89 ) ;
#246 = CARTESIAN_POINT ( 'NONE',  ( 6.000000000000000888, 7.347880794884120722E-16, 5.000000000000000000 ) ) ;
#247 = PLANE ( 'NONE',  #142 ) ;
#248 = AXIS2_PLACEMENT_3D ( 'NONE', #123, #13, #185 ) ;
#249 = APPROVAL_ROLE ( '' ) ;
#250 = EDGE_LOOP ( 'NONE', ( #96, #193 ) ) ;
#251 = APPROVAL_ROLE ( '' ) ;
#252 = EDGE_LOOP ( 'NONE', ( #238, #1 ) ) ;
#253 = AXIS2_PLACEMENT_3D ( 'NONE', #29, #225, #130 ) ;
#254 = PERSON_AND_ORGANIZATION ( #30, #182 ) ;
#255 = ORIENTED_EDGE ( 'NONE', *, *, #211, .T. ) ;
ENDSEC;
END-ISO-10303-21;
