ISO-10303-21;
HEADER;
FILE_DESCRIPTION (( 'STEP AP203' ),
    '1' );
FILE_NAME ('afec.STEP',
    '2023-02-12T12:11:27',
    ( '' ),
    ( '' ),
    'SwSTEP 2.0',
    'SolidWorks 2019',
    '' );
FILE_SCHEMA (( 'CONFIG_CONTROL_DESIGN' ));
ENDSEC;

DATA;
#1 = DIRECTION ( 'NONE',  ( 0.000000000000000000, 0.000000000000000000, 1.000000000000000000 ) ) ;
#2 = PRODUCT_DEFINITION_FORMATION_WITH_SPECIFIED_SOURCE ( 'LIBOVOLNÝ', '', #36, .NOT_KNOWN. ) ;
#3 = PERSON_AND_ORGANIZATION ( #16, #172 ) ;
#4 = APPROVAL_STATUS ( 'not_yet_approved' ) ;
#5 = EDGE_LOOP ( 'NONE', ( #239, #143 ) ) ;
#6 = LOCAL_TIME ( 13, 11, 27.00000000000000000, #204 ) ;
#7 = CC_DESIGN_DATE_AND_TIME_ASSIGNMENT ( #102, #185, ( #175 ) ) ;
#8 = DIRECTION ( 'NONE',  ( -0.000000000000000000, -0.000000000000000000, -1.000000000000000000 ) ) ;
#9 = ORIENTED_EDGE ( 'NONE', *, *, #140, .F. ) ;
#10 = CARTESIAN_POINT ( 'NONE',  ( 3.000000000000000444, 3.673940397442060361E-16, 3.000000000000000000 ) ) ;
#11 = ORIENTED_EDGE ( 'NONE', *, *, #126, .F. ) ;
#12 = CARTESIAN_POINT ( 'NONE',  ( -1.600000000000000089, 0.000000000000000000, 400.0000000000000000 ) ) ;
#13 = DIRECTION ( 'NONE',  ( 1.000000000000000000, 0.000000000000000000, -0.000000000000000000 ) ) ;
#14 = APPROVAL_PERSON_ORGANIZATION ( #195, #222, #251 ) ;
#15 = PRODUCT_DEFINITION_SHAPE ( 'NONE', 'NONE',  #175 ) ;
#16 = PERSON ( 'NEURÈENÝ', 'NEURÈENÝ', 'NEURÈENÝ', ('NEURÈENÝ'), ('NEURÈENÝ'), ('NEURÈENÝ') ) ;
#17 = CIRCLE ( 'NONE', #227, 1.600000000000000089 ) ;
#18 = CARTESIAN_POINT ( 'NONE',  ( -3.000000000000000444, 0.000000000000000000, 3.000000000000000000 ) ) ;
#19 = CARTESIAN_POINT ( 'NONE',  ( 0.000000000000000000, 0.000000000000000000, 0.000000000000000000 ) ) ;
#20 = DIRECTION ( 'NONE',  ( 1.000000000000000000, 0.000000000000000000, 0.000000000000000000 ) ) ;
#21 = DIRECTION ( 'NONE',  ( 1.000000000000000000, 0.000000000000000000, 0.000000000000000000 ) ) ;
#22 = PERSON_AND_ORGANIZATION ( #16, #172 ) ;
#23 = CALENDAR_DATE ( 2023, 12, 2 ) ;
#24 = PERSON_AND_ORGANIZATION_ROLE ( 'design_owner' ) ;
#25 = DIRECTION ( 'NONE',  ( 1.000000000000000000, 0.000000000000000000, 0.000000000000000000 ) ) ;
#26 = DIRECTION ( 'NONE',  ( 0.000000000000000000, 0.000000000000000000, 1.000000000000000000 ) ) ;
#27 = EDGE_CURVE ( 'NONE', #209, #70, #240, .T. ) ;
#28 = ORIENTED_EDGE ( 'NONE', *, *, #144, .T. ) ;
#29 = COORDINATED_UNIVERSAL_TIME_OFFSET ( 1, 0, .AHEAD. ) ;
#30 = DIRECTION ( 'NONE',  ( -1.000000000000000000, 0.000000000000000000, 0.000000000000000000 ) ) ;
#31 = DATE_TIME_ROLE ( 'classification_date' ) ;
#32 = CARTESIAN_POINT ( 'NONE',  ( 1.600000000000000089, 1.959434878635765230E-16, 3.000000000000000000 ) ) ;
#33 = UNCERTAINTY_MEASURE_WITH_UNIT (LENGTH_MEASURE( 1.000000000000000082E-05 ), #182, 'distance_accuracy_value', 'NONE');
#34 = CIRCLE ( 'NONE', #99, 3.000000000000000444 ) ;
#35 = CC_DESIGN_APPROVAL ( #63, ( #2 ) ) ;
#36 = PRODUCT ( 'afec', 'afec', '', ( #136 ) ) ;
#37 = CC_DESIGN_DATE_AND_TIME_ASSIGNMENT ( #132, #31, ( #188 ) ) ;
#38 = DIRECTION ( 'NONE',  ( -0.000000000000000000, -0.000000000000000000, -1.000000000000000000 ) ) ;
#39 = FACE_OUTER_BOUND ( 'NONE', #104, .T. ) ;
#40 = EDGE_LOOP ( 'NONE', ( #252, #28 ) ) ;
#41 = ORIENTED_EDGE ( 'NONE', *, *, #92, .F. ) ;
#42 = APPROVAL_STATUS ( 'not_yet_approved' ) ;
#43 = DIRECTION ( 'NONE',  ( -0.000000000000000000, -0.000000000000000000, -1.000000000000000000 ) ) ;
#44 = LOCAL_TIME ( 13, 11, 27.00000000000000000, #184 ) ;
#45 = CARTESIAN_POINT ( 'NONE',  ( 0.000000000000000000, 0.000000000000000000, 0.000000000000000000 ) ) ;
#46 = CARTESIAN_POINT ( 'NONE',  ( 0.000000000000000000, 0.000000000000000000, 3.000000000000000000 ) ) ;
#47 = FACE_OUTER_BOUND ( 'NONE', #65, .T. ) ;
#48 = DIRECTION ( 'NONE',  ( 1.000000000000000000, 0.000000000000000000, 0.000000000000000000 ) ) ;
#49 = VERTEX_POINT ( 'NONE', #32 ) ;
#50 = APPROVAL ( #4, 'NEURÈENÝ' ) ;
#51 = AXIS2_PLACEMENT_3D ( 'NONE', #150, #193, #13 ) ;
#52 = APPROVAL_STATUS ( 'not_yet_approved' ) ;
#53 =( NAMED_UNIT ( * ) SI_UNIT ( $, .STERADIAN. ) SOLID_ANGLE_UNIT ( ) );
#54 = DATE_AND_TIME ( #167, #6 ) ;
#55 = APPLICATION_PROTOCOL_DEFINITION ( 'international standard', 'config_control_design', 1994, #241 ) ;
#56 = AXIS2_PLACEMENT_3D ( 'NONE', #249, #226, #25 ) ;
#57 = CC_DESIGN_APPROVAL ( #222, ( #188 ) ) ;
#58 = ORIENTED_EDGE ( 'NONE', *, *, #61, .T. ) ;
#59 = ADVANCED_FACE ( 'NONE', ( #108 ), #67, .F. ) ;
#60 = CYLINDRICAL_SURFACE ( 'NONE', #161, 3.000000000000000444 ) ;
#61 = EDGE_CURVE ( 'NONE', #70, #162, #125, .T. ) ;
#62 = CARTESIAN_POINT ( 'NONE',  ( 0.000000000000000000, 0.000000000000000000, 3.000000000000000000 ) ) ;
#63 = APPROVAL ( #42, 'NEURÈENÝ' ) ;
#64 = FACE_BOUND ( 'NONE', #75, .T. ) ;
#65 = EDGE_LOOP ( 'NONE', ( #142, #149, #233, #130 ) ) ;
#66 = CYLINDRICAL_SURFACE ( 'NONE', #176, 3.000000000000000444 ) ;
#67 = PLANE ( 'NONE',  #127 ) ;
#68 = LOCAL_TIME ( 13, 11, 27.00000000000000000, #29 ) ;
#69 = SHAPE_DEFINITION_REPRESENTATION ( #15, #218 ) ;
#70 = VERTEX_POINT ( 'NONE', #194 ) ;
#71 = DIRECTION ( 'NONE',  ( -0.000000000000000000, -0.000000000000000000, -1.000000000000000000 ) ) ;
#72 = ORIENTED_EDGE ( 'NONE', *, *, #210, .F. ) ;
#73 = DIRECTION ( 'NONE',  ( 0.000000000000000000, 0.000000000000000000, 1.000000000000000000 ) ) ;
#74 = CIRCLE ( 'NONE', #217, 3.000000000000000444 ) ;
#75 = EDGE_LOOP ( 'NONE', ( #9, #120 ) ) ;
#76 = APPROVAL_DATE_TIME ( #100, #50 ) ;
#77 = VERTEX_POINT ( 'NONE', #169 ) ;
#78 = CC_DESIGN_PERSON_AND_ORGANIZATION_ASSIGNMENT ( #22, #24, ( #36 ) ) ;
#79 = VERTEX_POINT ( 'NONE', #174 ) ;
#80 = CIRCLE ( 'NONE', #56, 1.600000000000000089 ) ;
#81 = FACE_OUTER_BOUND ( 'NONE', #157, .T. ) ;
#82 = APPLICATION_CONTEXT ( 'configuration controlled 3d designs of mechanical parts and assemblies' ) ;
#83 = ORIENTED_EDGE ( 'NONE', *, *, #156, .T. ) ;
#84 = ADVANCED_FACE ( 'NONE', ( #64, #148 ), #171, .T. ) ;
#85 = LINE ( 'NONE', #12, #166 ) ;
#86 = VERTEX_POINT ( 'NONE', #89 ) ;
#87 = DIRECTION ( 'NONE',  ( 0.000000000000000000, 0.000000000000000000, 1.000000000000000000 ) ) ;
#88 = CC_DESIGN_PERSON_AND_ORGANIZATION_ASSIGNMENT ( #221, #106, ( #188 ) ) ;
#89 = CARTESIAN_POINT ( 'NONE',  ( -3.000000000000000444, 0.000000000000000000, 0.000000000000000000 ) ) ;
#90 = DIRECTION ( 'NONE',  ( 0.000000000000000000, 0.000000000000000000, 1.000000000000000000 ) ) ;
#91 = APPROVAL_PERSON_ORGANIZATION ( #103, #50, #117 ) ;
#92 = EDGE_CURVE ( 'NONE', #77, #247, #17, .T. ) ;
#93 = CLOSED_SHELL ( 'NONE', ( #183, #170, #203, #84, #59, #248, #196 ) ) ;
#94 = DIRECTION ( 'NONE',  ( 1.000000000000000000, 0.000000000000000000, 0.000000000000000000 ) ) ;
#95 = CARTESIAN_POINT ( 'NONE',  ( 0.000000000000000000, 0.000000000000000000, 3.000000000000000000 ) ) ;
#96 = CC_DESIGN_PERSON_AND_ORGANIZATION_ASSIGNMENT ( #213, #242, ( #2 ) ) ;
#97 = DIRECTION ( 'NONE',  ( -0.000000000000000000, -0.000000000000000000, -1.000000000000000000 ) ) ;
#98 = APPLICATION_PROTOCOL_DEFINITION ( 'international standard', 'config_control_design', 1994, #82 ) ;
#99 = AXIS2_PLACEMENT_3D ( 'NONE', #46, #26, #243 ) ;
#100 = DATE_AND_TIME ( #164, #44 ) ;
#101 = AXIS2_PLACEMENT_3D ( 'NONE', #158, #237, #94 ) ;
#102 = DATE_AND_TIME ( #23, #124 ) ;
#103 = PERSON_AND_ORGANIZATION ( #16, #172 ) ;
#104 = EDGE_LOOP ( 'NONE', ( #187, #115, #109, #165 ) ) ;
#105 = AXIS2_PLACEMENT_3D ( 'NONE', #191, #90, #141 ) ;
#106 = PERSON_AND_ORGANIZATION_ROLE ( 'classification_officer' ) ;
#107 = PLANE ( 'NONE',  #105 ) ;
#108 = FACE_OUTER_BOUND ( 'NONE', #181, .T. ) ;
#109 = ORIENTED_EDGE ( 'NONE', *, *, #215, .T. ) ;
#110 = DIRECTION ( 'NONE',  ( 0.000000000000000000, 0.000000000000000000, 1.000000000000000000 ) ) ;
#111 =( GEOMETRIC_REPRESENTATION_CONTEXT ( 3 ) GLOBAL_UNCERTAINTY_ASSIGNED_CONTEXT ( ( #33 ) ) GLOBAL_UNIT_ASSIGNED_CONTEXT ( ( #182, #234, #53 ) ) REPRESENTATION_CONTEXT ( 'NONE', 'WORKASPACE' ) );
#112 = CARTESIAN_POINT ( 'NONE',  ( 1.600000000000000089, 1.959434878635765230E-16, 400.0000000000000000 ) ) ;
#113 = PERSON_AND_ORGANIZATION_ROLE ( 'creator' ) ;
#114 = APPROVAL_PERSON_ORGANIZATION ( #3, #63, #122 ) ;
#115 = ORIENTED_EDGE ( 'NONE', *, *, #27, .F. ) ;
#116 = FACE_OUTER_BOUND ( 'NONE', #224, .T. ) ;
#117 = APPROVAL_ROLE ( '' ) ;
#118 = ORIENTED_EDGE ( 'NONE', *, *, #144, .F. ) ;
#119 = PERSON_AND_ORGANIZATION ( #16, #172 ) ;
#120 = ORIENTED_EDGE ( 'NONE', *, *, #235, .F. ) ;
#121 = CC_DESIGN_SECURITY_CLASSIFICATION ( #188, ( #2 ) ) ;
#122 = APPROVAL_ROLE ( '' ) ;
#123 = FACE_OUTER_BOUND ( 'NONE', #5, .T. ) ;
#124 = LOCAL_TIME ( 13, 11, 27.00000000000000000, #201 ) ;
#125 = LINE ( 'NONE', #10, #219 ) ;
#126 = EDGE_CURVE ( 'NONE', #86, #162, #74, .T. ) ;
#127 = AXIS2_PLACEMENT_3D ( 'NONE', #189, #206, #192 ) ;
#128 = DIRECTION ( 'NONE',  ( 0.000000000000000000, 0.000000000000000000, 1.000000000000000000 ) ) ;
#129 = DIRECTION ( 'NONE',  ( 1.000000000000000000, 0.000000000000000000, 0.000000000000000000 ) ) ;
#130 = ORIENTED_EDGE ( 'NONE', *, *, #156, .F. ) ;
#131 = CIRCLE ( 'NONE', #101, 3.000000000000000444 ) ;
#132 = DATE_AND_TIME ( #216, #68 ) ;
#133 = CARTESIAN_POINT ( 'NONE',  ( 1.600000000000000089, 1.959434878635765230E-16, 400.0000000000000000 ) ) ;
#134 = APPROVAL_DATE_TIME ( #54, #63 ) ;
#135 = DIRECTION ( 'NONE',  ( -0.000000000000000000, -0.000000000000000000, -1.000000000000000000 ) ) ;
#136 = MECHANICAL_CONTEXT ( 'NONE', #241, 'mechanical' ) ;
#137 = LOCAL_TIME ( 13, 11, 27.00000000000000000, #153 ) ;
#138 = AXIS2_PLACEMENT_3D ( 'NONE', #19, #1, #21 ) ;
#139 = CARTESIAN_POINT ( 'NONE',  ( 0.000000000000000000, 0.000000000000000000, 3.000000000000000000 ) ) ;
#140 = EDGE_CURVE ( 'NONE', #79, #49, #255, .T. ) ;
#141 = DIRECTION ( 'NONE',  ( 1.000000000000000000, 0.000000000000000000, -0.000000000000000000 ) ) ;
#142 = ORIENTED_EDGE ( 'NONE', *, *, #178, .F. ) ;
#143 = ORIENTED_EDGE ( 'NONE', *, *, #178, .T. ) ;
#144 = EDGE_CURVE ( 'NONE', #70, #209, #34, .T. ) ;
#145 = SECURITY_CLASSIFICATION_LEVEL ( 'unclassified' ) ;
#146 = CARTESIAN_POINT ( 'NONE',  ( 0.000000000000000000, 0.000000000000000000, 400.0000000000000000 ) ) ;
#147 = AXIS2_PLACEMENT_3D ( 'NONE', #228, #110, #48 ) ;
#148 = FACE_OUTER_BOUND ( 'NONE', #40, .T. ) ;
#149 = ORIENTED_EDGE ( 'NONE', *, *, #210, .T. ) ;
#150 = CARTESIAN_POINT ( 'NONE',  ( 0.000000000000000000, 0.000000000000000000, 3.000000000000000000 ) ) ;
#151 = CARTESIAN_POINT ( 'NONE',  ( 0.000000000000000000, 0.000000000000000000, 400.0000000000000000 ) ) ;
#152 = DESIGN_CONTEXT ( 'detailed design', #82, 'design' ) ;
#153 = COORDINATED_UNIVERSAL_TIME_OFFSET ( 1, 0, .AHEAD. ) ;
#154 = PRODUCT_RELATED_PRODUCT_CATEGORY ( 'detail', '', ( #36 ) ) ;
#155 = ORIENTED_EDGE ( 'NONE', *, *, #215, .F. ) ;
#156 = EDGE_CURVE ( 'NONE', #77, #79, #85, .T. ) ;
#157 = EDGE_LOOP ( 'NONE', ( #118, #58, #207, #155 ) ) ;
#158 = CARTESIAN_POINT ( 'NONE',  ( 0.000000000000000000, 0.000000000000000000, 0.000000000000000000 ) ) ;
#159 = CARTESIAN_POINT ( 'NONE',  ( 0.000000000000000000, 0.000000000000000000, 400.0000000000000000 ) ) ;
#160 = AXIS2_PLACEMENT_3D ( 'NONE', #244, #168, #129 ) ;
#161 = AXIS2_PLACEMENT_3D ( 'NONE', #139, #71, #199 ) ;
#162 = VERTEX_POINT ( 'NONE', #246 ) ;
#163 = PERSON_AND_ORGANIZATION_ROLE ( 'creator' ) ;
#164 = CALENDAR_DATE ( 2023, 12, 2 ) ;
#165 = ORIENTED_EDGE ( 'NONE', *, *, #126, .T. ) ;
#166 = VECTOR ( 'NONE', #173, 1000.000000000000000 ) ;
#167 = CALENDAR_DATE ( 2023, 12, 2 ) ;
#168 = DIRECTION ( 'NONE',  ( 0.000000000000000000, 0.000000000000000000, 1.000000000000000000 ) ) ;
#169 = CARTESIAN_POINT ( 'NONE',  ( -1.600000000000000089, 0.000000000000000000, 400.0000000000000000 ) ) ;
#170 = ADVANCED_FACE ( 'NONE', ( #81 ), #66, .T. ) ;
#171 = PLANE ( 'NONE',  #51 ) ;
#172 = ORGANIZATION ( 'NEURÈENÝ', 'NEURÈENÝ', '' ) ;
#173 = DIRECTION ( 'NONE',  ( -0.000000000000000000, -0.000000000000000000, -1.000000000000000000 ) ) ;
#174 = CARTESIAN_POINT ( 'NONE',  ( -1.600000000000000089, 0.000000000000000000, 3.000000000000000000 ) ) ;
#175 = PRODUCT_DEFINITION ( 'NEZNÁMÝ', '', #2, #152 ) ;
#176 = AXIS2_PLACEMENT_3D ( 'NONE', #62, #208, #225 ) ;
#177 = ORIENTED_EDGE ( 'NONE', *, *, #232, .F. ) ;
#178 = EDGE_CURVE ( 'NONE', #247, #77, #80, .T. ) ;
#179 = CYLINDRICAL_SURFACE ( 'NONE', #245, 1.600000000000000089 ) ;
#180 = LINE ( 'NONE', #133, #212 ) ;
#181 = EDGE_LOOP ( 'NONE', ( #11, #177 ) ) ;
#182 =( LENGTH_UNIT ( ) NAMED_UNIT ( * ) SI_UNIT ( .MILLI., .METRE. ) );
#183 = ADVANCED_FACE ( 'NONE', ( #47 ), #220, .T. ) ;
#184 = COORDINATED_UNIVERSAL_TIME_OFFSET ( 1, 0, .AHEAD. ) ;
#185 = DATE_TIME_ROLE ( 'creation_date' ) ;
#186 = ORIENTED_EDGE ( 'NONE', *, *, #140, .T. ) ;
#187 = ORIENTED_EDGE ( 'NONE', *, *, #61, .F. ) ;
#188 = SECURITY_CLASSIFICATION ( '', '', #145 ) ;
#189 = CARTESIAN_POINT ( 'NONE',  ( 0.000000000000000000, 0.000000000000000000, 0.000000000000000000 ) ) ;
#190 = CIRCLE ( 'NONE', #202, 1.600000000000000089 ) ;
#191 = CARTESIAN_POINT ( 'NONE',  ( 0.000000000000000000, 0.000000000000000000, 400.0000000000000000 ) ) ;
#192 = DIRECTION ( 'NONE',  ( 1.000000000000000000, 0.000000000000000000, -0.000000000000000000 ) ) ;
#193 = DIRECTION ( 'NONE',  ( 0.000000000000000000, 0.000000000000000000, 1.000000000000000000 ) ) ;
#194 = CARTESIAN_POINT ( 'NONE',  ( 3.000000000000000444, 3.673940397442060361E-16, 3.000000000000000000 ) ) ;
#195 = PERSON_AND_ORGANIZATION ( #16, #172 ) ;
#196 = ADVANCED_FACE ( 'NONE', ( #123 ), #107, .T. ) ;
#197 = CC_DESIGN_APPROVAL ( #50, ( #175 ) ) ;
#198 = CC_DESIGN_PERSON_AND_ORGANIZATION_ASSIGNMENT ( #211, #113, ( #2 ) ) ;
#199 = DIRECTION ( 'NONE',  ( -1.000000000000000000, 0.000000000000000000, 0.000000000000000000 ) ) ;
#200 = MANIFOLD_SOLID_BREP ( 'Pøidat vysunutím3', #93 ) ;
#201 = COORDINATED_UNIVERSAL_TIME_OFFSET ( 1, 0, .AHEAD. ) ;
#202 = AXIS2_PLACEMENT_3D ( 'NONE', #95, #73, #20 ) ;
#203 = ADVANCED_FACE ( 'NONE', ( #39 ), #60, .T. ) ;
#204 = COORDINATED_UNIVERSAL_TIME_OFFSET ( 1, 0, .AHEAD. ) ;
#205 = DIRECTION ( 'NONE',  ( 1.000000000000000000, 0.000000000000000000, 0.000000000000000000 ) ) ;
#206 = DIRECTION ( 'NONE',  ( 0.000000000000000000, 0.000000000000000000, 1.000000000000000000 ) ) ;
#207 = ORIENTED_EDGE ( 'NONE', *, *, #232, .T. ) ;
#208 = DIRECTION ( 'NONE',  ( -0.000000000000000000, -0.000000000000000000, -1.000000000000000000 ) ) ;
#209 = VERTEX_POINT ( 'NONE', #18 ) ;
#210 = EDGE_CURVE ( 'NONE', #247, #49, #180, .T. ) ;
#211 = PERSON_AND_ORGANIZATION ( #16, #172 ) ;
#212 = VECTOR ( 'NONE', #97, 1000.000000000000000 ) ;
#213 = PERSON_AND_ORGANIZATION ( #16, #172 ) ;
#214 = VECTOR ( 'NONE', #38, 1000.000000000000000 ) ;
#215 = EDGE_CURVE ( 'NONE', #209, #86, #253, .T. ) ;
#216 = CALENDAR_DATE ( 2023, 12, 2 ) ;
#217 = AXIS2_PLACEMENT_3D ( 'NONE', #45, #87, #205 ) ;
#218 = ADVANCED_BREP_SHAPE_REPRESENTATION ( 'afec', ( #200, #138 ), #111 ) ;
#219 = VECTOR ( 'NONE', #8, 1000.000000000000000 ) ;
#220 = CYLINDRICAL_SURFACE ( 'NONE', #229, 1.600000000000000089 ) ;
#221 = PERSON_AND_ORGANIZATION ( #16, #172 ) ;
#222 = APPROVAL ( #52, 'NEURÈENÝ' ) ;
#223 = DIRECTION ( 'NONE',  ( 1.000000000000000000, 0.000000000000000000, 0.000000000000000000 ) ) ;
#224 = EDGE_LOOP ( 'NONE', ( #72, #41, #83, #186 ) ) ;
#225 = DIRECTION ( 'NONE',  ( -1.000000000000000000, 0.000000000000000000, 0.000000000000000000 ) ) ;
#226 = DIRECTION ( 'NONE',  ( 0.000000000000000000, 0.000000000000000000, 1.000000000000000000 ) ) ;
#227 = AXIS2_PLACEMENT_3D ( 'NONE', #151, #128, #223 ) ;
#228 = CARTESIAN_POINT ( 'NONE',  ( 0.000000000000000000, 0.000000000000000000, 3.000000000000000000 ) ) ;
#229 = AXIS2_PLACEMENT_3D ( 'NONE', #146, #43, #30 ) ;
#230 = CALENDAR_DATE ( 2023, 12, 2 ) ;
#231 = DATE_AND_TIME ( #230, #137 ) ;
#232 = EDGE_CURVE ( 'NONE', #162, #86, #131, .T. ) ;
#233 = ORIENTED_EDGE ( 'NONE', *, *, #235, .T. ) ;
#234 =( NAMED_UNIT ( * ) PLANE_ANGLE_UNIT ( ) SI_UNIT ( $, .RADIAN. ) );
#235 = EDGE_CURVE ( 'NONE', #49, #79, #190, .T. ) ;
#236 = CARTESIAN_POINT ( 'NONE',  ( -3.000000000000000444, 0.000000000000000000, 3.000000000000000000 ) ) ;
#237 = DIRECTION ( 'NONE',  ( 0.000000000000000000, 0.000000000000000000, 1.000000000000000000 ) ) ;
#238 = CC_DESIGN_PERSON_AND_ORGANIZATION_ASSIGNMENT ( #119, #163, ( #175 ) ) ;
#239 = ORIENTED_EDGE ( 'NONE', *, *, #92, .T. ) ;
#240 = CIRCLE ( 'NONE', #160, 3.000000000000000444 ) ;
#241 = APPLICATION_CONTEXT ( 'configuration controlled 3d designs of mechanical parts and assemblies' ) ;
#242 = PERSON_AND_ORGANIZATION_ROLE ( 'design_supplier' ) ;
#243 = DIRECTION ( 'NONE',  ( 1.000000000000000000, 0.000000000000000000, 0.000000000000000000 ) ) ;
#244 = CARTESIAN_POINT ( 'NONE',  ( 0.000000000000000000, 0.000000000000000000, 3.000000000000000000 ) ) ;
#245 = AXIS2_PLACEMENT_3D ( 'NONE', #159, #135, #254 ) ;
#246 = CARTESIAN_POINT ( 'NONE',  ( 3.000000000000000444, 3.673940397442060361E-16, 0.000000000000000000 ) ) ;
#247 = VERTEX_POINT ( 'NONE', #112 ) ;
#248 = ADVANCED_FACE ( 'NONE', ( #116 ), #179, .T. ) ;
#249 = CARTESIAN_POINT ( 'NONE',  ( 0.000000000000000000, 0.000000000000000000, 400.0000000000000000 ) ) ;
#250 = APPROVAL_DATE_TIME ( #231, #222 ) ;
#251 = APPROVAL_ROLE ( '' ) ;
#252 = ORIENTED_EDGE ( 'NONE', *, *, #27, .T. ) ;
#253 = LINE ( 'NONE', #236, #214 ) ;
#254 = DIRECTION ( 'NONE',  ( -1.000000000000000000, 0.000000000000000000, 0.000000000000000000 ) ) ;
#255 = CIRCLE ( 'NONE', #147, 1.600000000000000089 ) ;
ENDSEC;
END-ISO-10303-21;
