ISO-10303-21;
HEADER;
FILE_DESCRIPTION (( 'STEP AP203' ),
    '1' );
FILE_NAME ('256a.STEP',
    '2023-02-12T12:12:12',
    ( '' ),
    ( '' ),
    'SwSTEP 2.0',
    'SolidWorks 2019',
    '' );
FILE_SCHEMA (( 'CONFIG_CONTROL_DESIGN' ));
ENDSEC;

DATA;
#1 = DIRECTION ( 'NONE',  ( -1.000000000000000000, 0.000000000000000000, 0.000000000000000000 ) ) ;
#2 = AXIS2_PLACEMENT_3D ( 'NONE', #113, #200, #100 ) ;
#3 = FACE_OUTER_BOUND ( 'NONE', #8, .T. ) ;
#4 = DIRECTION ( 'NONE',  ( 1.000000000000000000, 0.000000000000000000, 0.000000000000000000 ) ) ;
#5 = ORIENTED_EDGE ( 'NONE', *, *, #154, .F. ) ;
#6 = APPROVAL_PERSON_ORGANIZATION ( #52, #91, #130 ) ;
#7 = VERTEX_POINT ( 'NONE', #86 ) ;
#8 = EDGE_LOOP ( 'NONE', ( #232, #207, #193, #151 ) ) ;
#9 = ORIENTED_EDGE ( 'NONE', *, *, #147, .F. ) ;
#10 = CC_DESIGN_APPROVAL ( #205, ( #238 ) ) ;
#11 = VERTEX_POINT ( 'NONE', #167 ) ;
#12 = CC_DESIGN_PERSON_AND_ORGANIZATION_ASSIGNMENT ( #108, #14, ( #251 ) ) ;
#13 = APPROVAL_PERSON_ORGANIZATION ( #79, #205, #140 ) ;
#14 = PERSON_AND_ORGANIZATION_ROLE ( 'design_owner' ) ;
#15 = PERSON_AND_ORGANIZATION_ROLE ( 'classification_officer' ) ;
#16 = PLANE ( 'NONE',  #211 ) ;
#17 = APPROVAL_STATUS ( 'not_yet_approved' ) ;
#18 = CARTESIAN_POINT ( 'NONE',  ( 0.000000000000000000, 0.000000000000000000, 200.0000000000000000 ) ) ;
#19 = CIRCLE ( 'NONE', #164, 3.000000000000000444 ) ;
#20 = CARTESIAN_POINT ( 'NONE',  ( 0.000000000000000000, 0.000000000000000000, 200.0000000000000000 ) ) ;
#21 = CARTESIAN_POINT ( 'NONE',  ( 0.000000000000000000, 0.000000000000000000, 0.000000000000000000 ) ) ;
#22 = DIRECTION ( 'NONE',  ( 1.000000000000000000, 0.000000000000000000, 0.000000000000000000 ) ) ;
#23 = CARTESIAN_POINT ( 'NONE',  ( 0.000000000000000000, 0.000000000000000000, 0.000000000000000000 ) ) ;
#24 = AXIS2_PLACEMENT_3D ( 'NONE', #62, #168, #4 ) ;
#25 = EDGE_CURVE ( 'NONE', #216, #7, #71, .T. ) ;
#26 = UNCERTAINTY_MEASURE_WITH_UNIT (LENGTH_MEASURE( 1.000000000000000082E-05 ), #174, 'distance_accuracy_value', 'NONE');
#27 = COORDINATED_UNIVERSAL_TIME_OFFSET ( 1, 0, .AHEAD. ) ;
#28 = APPROVAL_PERSON_ORGANIZATION ( #188, #84, #245 ) ;
#29 = DIRECTION ( 'NONE',  ( 0.000000000000000000, 0.000000000000000000, 1.000000000000000000 ) ) ;
#30 = COORDINATED_UNIVERSAL_TIME_OFFSET ( 1, 0, .AHEAD. ) ;
#31 = DIRECTION ( 'NONE',  ( -0.000000000000000000, -0.000000000000000000, -1.000000000000000000 ) ) ;
#32 = ADVANCED_FACE ( 'NONE', ( #244 ), #50, .T. ) ;
#33 = VECTOR ( 'NONE', #31, 1000.000000000000000 ) ;
#34 = CIRCLE ( 'NONE', #217, 3.000000000000000444 ) ;
#35 = EDGE_LOOP ( 'NONE', ( #44, #74 ) ) ;
#36 = CC_DESIGN_PERSON_AND_ORGANIZATION_ASSIGNMENT ( #114, #15, ( #238 ) ) ;
#37 = CARTESIAN_POINT ( 'NONE',  ( 0.000000000000000000, 0.000000000000000000, 3.000000000000000000 ) ) ;
#38 = PRODUCT_DEFINITION_FORMATION_WITH_SPECIFIED_SOURCE ( 'LIBOVOLNÝ', '', #251, .NOT_KNOWN. ) ;
#39 = DIRECTION ( 'NONE',  ( 0.000000000000000000, 0.000000000000000000, 1.000000000000000000 ) ) ;
#40 = DIRECTION ( 'NONE',  ( 0.000000000000000000, 0.000000000000000000, 1.000000000000000000 ) ) ;
#41 = DIRECTION ( 'NONE',  ( -0.000000000000000000, -0.000000000000000000, -1.000000000000000000 ) ) ;
#42 = ADVANCED_FACE ( 'NONE', ( #213 ), #89, .T. ) ;
#43 = CIRCLE ( 'NONE', #77, 1.600000000000000089 ) ;
#44 = ORIENTED_EDGE ( 'NONE', *, *, #243, .T. ) ;
#45 = PRODUCT_RELATED_PRODUCT_CATEGORY ( 'detail', '', ( #251 ) ) ;
#46 = CALENDAR_DATE ( 2023, 12, 2 ) ;
#47 = EDGE_LOOP ( 'NONE', ( #65, #227 ) ) ;
#48 = EDGE_LOOP ( 'NONE', ( #9, #158 ) ) ;
#49 = VERTEX_POINT ( 'NONE', #119 ) ;
#50 = CYLINDRICAL_SURFACE ( 'NONE', #190, 3.000000000000000444 ) ;
#51 = PERSON ( 'NEURÈENÝ', 'NEURÈENÝ', 'NEURÈENÝ', ('NEURÈENÝ'), ('NEURÈENÝ'), ('NEURÈENÝ') ) ;
#52 = PERSON_AND_ORGANIZATION ( #51, #115 ) ;
#53 = CARTESIAN_POINT ( 'NONE',  ( 0.000000000000000000, 0.000000000000000000, 3.000000000000000000 ) ) ;
#54 = SHAPE_DEFINITION_REPRESENTATION ( #132, #127 ) ;
#55 = DIRECTION ( 'NONE',  ( 1.000000000000000000, 0.000000000000000000, 0.000000000000000000 ) ) ;
#56 = APPLICATION_PROTOCOL_DEFINITION ( 'international standard', 'config_control_design', 1994, #196 ) ;
#57 = ADVANCED_FACE ( 'NONE', ( #220 ), #16, .T. ) ;
#58 = DIRECTION ( 'NONE',  ( -0.000000000000000000, -0.000000000000000000, -1.000000000000000000 ) ) ;
#59 = DIRECTION ( 'NONE',  ( 0.000000000000000000, 0.000000000000000000, 1.000000000000000000 ) ) ;
#60 = DIRECTION ( 'NONE',  ( 1.000000000000000000, 0.000000000000000000, -0.000000000000000000 ) ) ;
#61 = DATE_AND_TIME ( #94, #125 ) ;
#62 = CARTESIAN_POINT ( 'NONE',  ( 0.000000000000000000, 0.000000000000000000, 3.000000000000000000 ) ) ;
#63 = CIRCLE ( 'NONE', #2, 1.600000000000000089 ) ;
#64 = ORIENTED_EDGE ( 'NONE', *, *, #25, .F. ) ;
#65 = ORIENTED_EDGE ( 'NONE', *, *, #131, .F. ) ;
#66 = VECTOR ( 'NONE', #235, 1000.000000000000000 ) ;
#67 = APPROVAL_STATUS ( 'not_yet_approved' ) ;
#68 = ORIENTED_EDGE ( 'NONE', *, *, #233, .F. ) ;
#69 = CALENDAR_DATE ( 2023, 12, 2 ) ;
#70 = PERSON_AND_ORGANIZATION ( #51, #115 ) ;
#71 = CIRCLE ( 'NONE', #24, 3.000000000000000444 ) ;
#72 = DESIGN_CONTEXT ( 'detailed design', #215, 'design' ) ;
#73 = CC_DESIGN_PERSON_AND_ORGANIZATION_ASSIGNMENT ( #248, #145, ( #184 ) ) ;
#74 = ORIENTED_EDGE ( 'NONE', *, *, #143, .T. ) ;
#75 = DIRECTION ( 'NONE',  ( -1.000000000000000000, 0.000000000000000000, 0.000000000000000000 ) ) ;
#76 = DIRECTION ( 'NONE',  ( 1.000000000000000000, 0.000000000000000000, -0.000000000000000000 ) ) ;
#77 = AXIS2_PLACEMENT_3D ( 'NONE', #219, #237, #159 ) ;
#78 = ADVANCED_FACE ( 'NONE', ( #3 ), #177, .T. ) ;
#79 = PERSON_AND_ORGANIZATION ( #51, #115 ) ;
#80 = DIRECTION ( 'NONE',  ( 0.000000000000000000, 0.000000000000000000, 1.000000000000000000 ) ) ;
#81 = CARTESIAN_POINT ( 'NONE',  ( 0.000000000000000000, 0.000000000000000000, 3.000000000000000000 ) ) ;
#82 = CARTESIAN_POINT ( 'NONE',  ( -3.000000000000000444, 0.000000000000000000, 0.000000000000000000 ) ) ;
#83 = DATE_AND_TIME ( #46, #198 ) ;
#84 = APPROVAL ( #169, 'NEURÈENÝ' ) ;
#85 = AXIS2_PLACEMENT_3D ( 'NONE', #112, #182, #111 ) ;
#86 = CARTESIAN_POINT ( 'NONE',  ( -3.000000000000000444, 0.000000000000000000, 3.000000000000000000 ) ) ;
#87 = CARTESIAN_POINT ( 'NONE',  ( 0.000000000000000000, 0.000000000000000000, 200.0000000000000000 ) ) ;
#88 = CALENDAR_DATE ( 2023, 12, 2 ) ;
#89 = CYLINDRICAL_SURFACE ( 'NONE', #195, 1.600000000000000089 ) ;
#90 = PERSON_AND_ORGANIZATION_ROLE ( 'creator' ) ;
#91 = APPROVAL ( #67, 'NEURÈENÝ' ) ;
#92 = CC_DESIGN_APPROVAL ( #84, ( #38 ) ) ;
#93 = APPROVAL_DATE_TIME ( #225, #84 ) ;
#94 = CALENDAR_DATE ( 2023, 12, 2 ) ;
#95 = DIRECTION ( 'NONE',  ( 0.000000000000000000, 0.000000000000000000, 1.000000000000000000 ) ) ;
#96 = COORDINATED_UNIVERSAL_TIME_OFFSET ( 1, 0, .AHEAD. ) ;
#97 = DIRECTION ( 'NONE',  ( -1.000000000000000000, 0.000000000000000000, 0.000000000000000000 ) ) ;
#98 = CYLINDRICAL_SURFACE ( 'NONE', #170, 3.000000000000000444 ) ;
#99 = DIRECTION ( 'NONE',  ( 0.000000000000000000, 0.000000000000000000, 1.000000000000000000 ) ) ;
#100 = DIRECTION ( 'NONE',  ( 1.000000000000000000, 0.000000000000000000, 0.000000000000000000 ) ) ;
#101 = EDGE_CURVE ( 'NONE', #175, #156, #43, .T. ) ;
#102 = AXIS2_PLACEMENT_3D ( 'NONE', #87, #29, #171 ) ;
#103 = ORIENTED_EDGE ( 'NONE', *, *, #194, .T. ) ;
#104 = ORIENTED_EDGE ( 'NONE', *, *, #243, .F. ) ;
#105 = CARTESIAN_POINT ( 'NONE',  ( 3.000000000000000444, 3.673940397442060361E-16, 3.000000000000000000 ) ) ;
#106 = AXIS2_PLACEMENT_3D ( 'NONE', #253, #40, #22 ) ;
#107 = CARTESIAN_POINT ( 'NONE',  ( 0.000000000000000000, 0.000000000000000000, 3.000000000000000000 ) ) ;
#108 = PERSON_AND_ORGANIZATION ( #51, #115 ) ;
#109 = ORIENTED_EDGE ( 'NONE', *, *, #110, .F. ) ;
#110 = EDGE_CURVE ( 'NONE', #49, #175, #240, .T. ) ;
#111 = DIRECTION ( 'NONE',  ( 1.000000000000000000, 0.000000000000000000, 0.000000000000000000 ) ) ;
#112 = CARTESIAN_POINT ( 'NONE',  ( 0.000000000000000000, 0.000000000000000000, 0.000000000000000000 ) ) ;
#113 = CARTESIAN_POINT ( 'NONE',  ( 0.000000000000000000, 0.000000000000000000, 3.000000000000000000 ) ) ;
#114 = PERSON_AND_ORGANIZATION ( #51, #115 ) ;
#115 = ORGANIZATION ( 'NEURÈENÝ', 'NEURÈENÝ', '' ) ;
#116 = SECURITY_CLASSIFICATION_LEVEL ( 'unclassified' ) ;
#117 = CARTESIAN_POINT ( 'NONE',  ( 0.000000000000000000, 0.000000000000000000, 0.000000000000000000 ) ) ;
#118 = CARTESIAN_POINT ( 'NONE',  ( 3.000000000000000444, 3.673940397442060361E-16, 0.000000000000000000 ) ) ;
#119 = CARTESIAN_POINT ( 'NONE',  ( 1.600000000000000089, 1.959434878635765230E-16, 200.0000000000000000 ) ) ;
#120 =( NAMED_UNIT ( * ) SI_UNIT ( $, .STERADIAN. ) SOLID_ANGLE_UNIT ( ) );
#121 = AXIS2_PLACEMENT_3D ( 'NONE', #20, #236, #97 ) ;
#122 = EDGE_LOOP ( 'NONE', ( #109, #104, #103, #150 ) ) ;
#123 = LINE ( 'NONE', #210, #33 ) ;
#124 = DATE_TIME_ROLE ( 'creation_date' ) ;
#125 = LOCAL_TIME ( 13, 12, 12.00000000000000000, #96 ) ;
#126 = DIRECTION ( 'NONE',  ( 0.000000000000000000, 0.000000000000000000, 1.000000000000000000 ) ) ;
#127 = ADVANCED_BREP_SHAPE_REPRESENTATION ( '256a', ( #172, #85 ), #202 ) ;
#128 = ORIENTED_EDGE ( 'NONE', *, *, #25, .T. ) ;
#129 = CIRCLE ( 'NONE', #102, 1.600000000000000089 ) ;
#130 = APPROVAL_ROLE ( '' ) ;
#131 = EDGE_CURVE ( 'NONE', #153, #234, #19, .T. ) ;
#132 = PRODUCT_DEFINITION_SHAPE ( 'NONE', 'NONE',  #184 ) ;
#133 = CARTESIAN_POINT ( 'NONE',  ( 0.000000000000000000, 0.000000000000000000, 200.0000000000000000 ) ) ;
#134 = DIRECTION ( 'NONE',  ( -1.000000000000000000, 0.000000000000000000, 0.000000000000000000 ) ) ;
#135 = CLOSED_SHELL ( 'NONE', ( #78, #173, #32, #191, #166, #42, #57 ) ) ;
#136 = LOCAL_TIME ( 13, 12, 12.00000000000000000, #255 ) ;
#137 = CC_DESIGN_DATE_AND_TIME_ASSIGNMENT ( #61, #201, ( #238 ) ) ;
#138 = FACE_OUTER_BOUND ( 'NONE', #47, .T. ) ;
#139 = VECTOR ( 'NONE', #41, 1000.000000000000000 ) ;
#140 = APPROVAL_ROLE ( '' ) ;
#141 = LINE ( 'NONE', #208, #139 ) ;
#142 = DIRECTION ( 'NONE',  ( -0.000000000000000000, -0.000000000000000000, -1.000000000000000000 ) ) ;
#143 = EDGE_CURVE ( 'NONE', #49, #11, #226, .T. ) ;
#144 = AXIS2_PLACEMENT_3D ( 'NONE', #53, #126, #60 ) ;
#145 = PERSON_AND_ORGANIZATION_ROLE ( 'creator' ) ;
#146 = ORIENTED_EDGE ( 'NONE', *, *, #239, .T. ) ;
#147 = EDGE_CURVE ( 'NONE', #156, #175, #63, .T. ) ;
#148 = DATE_AND_TIME ( #69, #250 ) ;
#149 = CIRCLE ( 'NONE', #185, 3.000000000000000444 ) ;
#150 = ORIENTED_EDGE ( 'NONE', *, *, #147, .T. ) ;
#151 = ORIENTED_EDGE ( 'NONE', *, *, #194, .F. ) ;
#152 = COORDINATED_UNIVERSAL_TIME_OFFSET ( 1, 0, .AHEAD. ) ;
#153 = VERTEX_POINT ( 'NONE', #82 ) ;
#154 = EDGE_CURVE ( 'NONE', #216, #234, #165, .T. ) ;
#155 = CC_DESIGN_APPROVAL ( #91, ( #184 ) ) ;
#156 = VERTEX_POINT ( 'NONE', #203 ) ;
#157 = CC_DESIGN_SECURITY_CLASSIFICATION ( #238, ( #38 ) ) ;
#158 = ORIENTED_EDGE ( 'NONE', *, *, #101, .F. ) ;
#159 = DIRECTION ( 'NONE',  ( 1.000000000000000000, 0.000000000000000000, 0.000000000000000000 ) ) ;
#160 = FACE_OUTER_BOUND ( 'NONE', #180, .T. ) ;
#161 = DATE_AND_TIME ( #204, #136 ) ;
#162 = CARTESIAN_POINT ( 'NONE',  ( 1.600000000000000089, 1.959434878635765230E-16, 200.0000000000000000 ) ) ;
#163 = FACE_OUTER_BOUND ( 'NONE', #189, .T. ) ;
#164 = AXIS2_PLACEMENT_3D ( 'NONE', #117, #59, #55 ) ;
#165 = LINE ( 'NONE', #242, #212 ) ;
#166 = ADVANCED_FACE ( 'NONE', ( #138 ), #178, .F. ) ;
#167 = CARTESIAN_POINT ( 'NONE',  ( -1.600000000000000089, 0.000000000000000000, 200.0000000000000000 ) ) ;
#168 = DIRECTION ( 'NONE',  ( 0.000000000000000000, 0.000000000000000000, 1.000000000000000000 ) ) ;
#169 = APPROVAL_STATUS ( 'not_yet_approved' ) ;
#170 = AXIS2_PLACEMENT_3D ( 'NONE', #37, #58, #134 ) ;
#171 = DIRECTION ( 'NONE',  ( 1.000000000000000000, 0.000000000000000000, 0.000000000000000000 ) ) ;
#172 = MANIFOLD_SOLID_BREP ( 'Pøidat vysunutím3', #135 ) ;
#173 = ADVANCED_FACE ( 'NONE', ( #160 ), #98, .T. ) ;
#174 =( LENGTH_UNIT ( ) NAMED_UNIT ( * ) SI_UNIT ( .MILLI., .METRE. ) );
#175 = VERTEX_POINT ( 'NONE', #181 ) ;
#176 = DIRECTION ( 'NONE',  ( -0.000000000000000000, -0.000000000000000000, -1.000000000000000000 ) ) ;
#177 = CYLINDRICAL_SURFACE ( 'NONE', #121, 1.600000000000000089 ) ;
#178 = PLANE ( 'NONE',  #254 ) ;
#179 = CC_DESIGN_PERSON_AND_ORGANIZATION_ASSIGNMENT ( #70, #214, ( #38 ) ) ;
#180 = EDGE_LOOP ( 'NONE', ( #64, #228, #247, #68 ) ) ;
#181 = CARTESIAN_POINT ( 'NONE',  ( 1.600000000000000089, 1.959434878635765230E-16, 3.000000000000000000 ) ) ;
#182 = DIRECTION ( 'NONE',  ( 0.000000000000000000, 0.000000000000000000, 1.000000000000000000 ) ) ;
#183 = DIRECTION ( 'NONE',  ( 1.000000000000000000, 0.000000000000000000, 0.000000000000000000 ) ) ;
#184 = PRODUCT_DEFINITION ( 'NEZNÁMÝ', '', #38, #72 ) ;
#185 = AXIS2_PLACEMENT_3D ( 'NONE', #23, #39, #224 ) ;
#186 = MECHANICAL_CONTEXT ( 'NONE', #196, 'mechanical' ) ;
#187 = ORIENTED_EDGE ( 'NONE', *, *, #233, .T. ) ;
#188 = PERSON_AND_ORGANIZATION ( #51, #115 ) ;
#189 = EDGE_LOOP ( 'NONE', ( #146, #128 ) ) ;
#190 = AXIS2_PLACEMENT_3D ( 'NONE', #107, #176, #75 ) ;
#191 = ADVANCED_FACE ( 'NONE', ( #221, #163 ), #231, .T. ) ;
#192 = APPROVAL_DATE_TIME ( #148, #91 ) ;
#193 = ORIENTED_EDGE ( 'NONE', *, *, #101, .T. ) ;
#194 = EDGE_CURVE ( 'NONE', #11, #156, #123, .T. ) ;
#195 = AXIS2_PLACEMENT_3D ( 'NONE', #18, #218, #1 ) ;
#196 = APPLICATION_CONTEXT ( 'configuration controlled 3d designs of mechanical parts and assemblies' ) ;
#197 = APPLICATION_PROTOCOL_DEFINITION ( 'international standard', 'config_control_design', 1994, #215 ) ;
#198 = LOCAL_TIME ( 13, 12, 12.00000000000000000, #27 ) ;
#199 = PERSON_AND_ORGANIZATION ( #51, #115 ) ;
#200 = DIRECTION ( 'NONE',  ( 0.000000000000000000, 0.000000000000000000, 1.000000000000000000 ) ) ;
#201 = DATE_TIME_ROLE ( 'classification_date' ) ;
#202 =( GEOMETRIC_REPRESENTATION_CONTEXT ( 3 ) GLOBAL_UNCERTAINTY_ASSIGNED_CONTEXT ( ( #26 ) ) GLOBAL_UNIT_ASSIGNED_CONTEXT ( ( #174, #241, #120 ) ) REPRESENTATION_CONTEXT ( 'NONE', 'WORKASPACE' ) );
#203 = CARTESIAN_POINT ( 'NONE',  ( -1.600000000000000089, 0.000000000000000000, 3.000000000000000000 ) ) ;
#204 = CALENDAR_DATE ( 2023, 12, 2 ) ;
#205 = APPROVAL ( #17, 'NEURÈENÝ' ) ;
#206 = LOCAL_TIME ( 13, 12, 12.00000000000000000, #30 ) ;
#207 = ORIENTED_EDGE ( 'NONE', *, *, #110, .T. ) ;
#208 = CARTESIAN_POINT ( 'NONE',  ( -3.000000000000000444, 0.000000000000000000, 3.000000000000000000 ) ) ;
#209 = EDGE_CURVE ( 'NONE', #234, #153, #149, .T. ) ;
#210 = CARTESIAN_POINT ( 'NONE',  ( -1.600000000000000089, 0.000000000000000000, 200.0000000000000000 ) ) ;
#211 = AXIS2_PLACEMENT_3D ( 'NONE', #133, #95, #76 ) ;
#212 = VECTOR ( 'NONE', #142, 1000.000000000000000 ) ;
#213 = FACE_OUTER_BOUND ( 'NONE', #122, .T. ) ;
#214 = PERSON_AND_ORGANIZATION_ROLE ( 'design_supplier' ) ;
#215 = APPLICATION_CONTEXT ( 'configuration controlled 3d designs of mechanical parts and assemblies' ) ;
#216 = VERTEX_POINT ( 'NONE', #105 ) ;
#217 = AXIS2_PLACEMENT_3D ( 'NONE', #81, #99, #183 ) ;
#218 = DIRECTION ( 'NONE',  ( -0.000000000000000000, -0.000000000000000000, -1.000000000000000000 ) ) ;
#219 = CARTESIAN_POINT ( 'NONE',  ( 0.000000000000000000, 0.000000000000000000, 3.000000000000000000 ) ) ;
#220 = FACE_OUTER_BOUND ( 'NONE', #35, .T. ) ;
#221 = FACE_BOUND ( 'NONE', #48, .T. ) ;
#222 = DIRECTION ( 'NONE',  ( 1.000000000000000000, 0.000000000000000000, -0.000000000000000000 ) ) ;
#223 = CC_DESIGN_PERSON_AND_ORGANIZATION_ASSIGNMENT ( #199, #90, ( #38 ) ) ;
#224 = DIRECTION ( 'NONE',  ( 1.000000000000000000, 0.000000000000000000, 0.000000000000000000 ) ) ;
#225 = DATE_AND_TIME ( #88, #206 ) ;
#226 = CIRCLE ( 'NONE', #106, 1.600000000000000089 ) ;
#227 = ORIENTED_EDGE ( 'NONE', *, *, #209, .F. ) ;
#228 = ORIENTED_EDGE ( 'NONE', *, *, #154, .T. ) ;
#229 = ORIENTED_EDGE ( 'NONE', *, *, #131, .T. ) ;
#230 = EDGE_LOOP ( 'NONE', ( #5, #246, #187, #229 ) ) ;
#231 = PLANE ( 'NONE',  #144 ) ;
#232 = ORIENTED_EDGE ( 'NONE', *, *, #143, .F. ) ;
#233 = EDGE_CURVE ( 'NONE', #7, #153, #141, .T. ) ;
#234 = VERTEX_POINT ( 'NONE', #118 ) ;
#235 = DIRECTION ( 'NONE',  ( -0.000000000000000000, -0.000000000000000000, -1.000000000000000000 ) ) ;
#236 = DIRECTION ( 'NONE',  ( -0.000000000000000000, -0.000000000000000000, -1.000000000000000000 ) ) ;
#237 = DIRECTION ( 'NONE',  ( 0.000000000000000000, 0.000000000000000000, 1.000000000000000000 ) ) ;
#238 = SECURITY_CLASSIFICATION ( '', '', #116 ) ;
#239 = EDGE_CURVE ( 'NONE', #7, #216, #34, .T. ) ;
#240 = LINE ( 'NONE', #162, #66 ) ;
#241 =( NAMED_UNIT ( * ) PLANE_ANGLE_UNIT ( ) SI_UNIT ( $, .RADIAN. ) );
#242 = CARTESIAN_POINT ( 'NONE',  ( 3.000000000000000444, 3.673940397442060361E-16, 3.000000000000000000 ) ) ;
#243 = EDGE_CURVE ( 'NONE', #11, #49, #129, .T. ) ;
#244 = FACE_OUTER_BOUND ( 'NONE', #230, .T. ) ;
#245 = APPROVAL_ROLE ( '' ) ;
#246 = ORIENTED_EDGE ( 'NONE', *, *, #239, .F. ) ;
#247 = ORIENTED_EDGE ( 'NONE', *, *, #209, .T. ) ;
#248 = PERSON_AND_ORGANIZATION ( #51, #115 ) ;
#249 = CC_DESIGN_DATE_AND_TIME_ASSIGNMENT ( #83, #124, ( #184 ) ) ;
#250 = LOCAL_TIME ( 13, 12, 12.00000000000000000, #152 ) ;
#251 = PRODUCT ( '256a', '256a', '', ( #186 ) ) ;
#252 = APPROVAL_DATE_TIME ( #161, #205 ) ;
#253 = CARTESIAN_POINT ( 'NONE',  ( 0.000000000000000000, 0.000000000000000000, 200.0000000000000000 ) ) ;
#254 = AXIS2_PLACEMENT_3D ( 'NONE', #21, #80, #222 ) ;
#255 = COORDINATED_UNIVERSAL_TIME_OFFSET ( 1, 0, .AHEAD. ) ;
ENDSEC;
END-ISO-10303-21;
