ISO-10303-21;
HEADER;
FILE_DESCRIPTION (( 'STEP AP203' ),
    '1' );
FILE_NAME ('e0ae.STEP',
    '2023-02-12T12:03:12',
    ( '' ),
    ( '' ),
    'SwSTEP 2.0',
    'SolidWorks 2019',
    '' );
FILE_SCHEMA (( 'CONFIG_CONTROL_DESIGN' ));
ENDSEC;

DATA;
#1 = ADVANCED_BREP_SHAPE_REPRESENTATION ( 'e0ae', ( #4, #208 ), #212 ) ;
#2 = APPROVAL_ROLE ( '' ) ;
#3 = ORIENTED_EDGE ( 'NONE', *, *, #153, .F. ) ;
#4 = MANIFOLD_SOLID_BREP ( 'Pøidat vysunutím3', #120 ) ;
#5 = AXIS2_PLACEMENT_3D ( 'NONE', #170, #51, #131 ) ;
#6 = PERSON_AND_ORGANIZATION_ROLE ( 'creator' ) ;
#7 = VERTEX_POINT ( 'NONE', #190 ) ;
#8 = VECTOR ( 'NONE', #74, 1000.000000000000000 ) ;
#9 = CALENDAR_DATE ( 2023, 12, 2 ) ;
#10 = ORIENTED_EDGE ( 'NONE', *, *, #71, .F. ) ;
#11 = DIRECTION ( 'NONE',  ( -1.000000000000000000, 0.000000000000000000, 0.000000000000000000 ) ) ;
#12 = AXIS2_PLACEMENT_3D ( 'NONE', #21, #161, #156 ) ;
#13 = CARTESIAN_POINT ( 'NONE',  ( 2.000000000000000000, 2.449293598294705921E-16, 100.0000000000000000 ) ) ;
#14 = DIRECTION ( 'NONE',  ( -0.000000000000000000, -0.000000000000000000, -1.000000000000000000 ) ) ;
#15 = PRODUCT ( 'e0ae', 'e0ae', '', ( #176 ) ) ;
#16 = PLANE ( 'NONE',  #191 ) ;
#17 = ADVANCED_FACE ( 'NONE', ( #247 ), #174, .T. ) ;
#18 = CARTESIAN_POINT ( 'NONE',  ( 0.000000000000000000, 0.000000000000000000, 3.000000000000000000 ) ) ;
#19 = CARTESIAN_POINT ( 'NONE',  ( 0.000000000000000000, 0.000000000000000000, 3.000000000000000000 ) ) ;
#20 = LOCAL_TIME ( 13, 3, 12.00000000000000000, #251 ) ;
#21 = CARTESIAN_POINT ( 'NONE',  ( 0.000000000000000000, 0.000000000000000000, 0.000000000000000000 ) ) ;
#22 = APPROVAL_ROLE ( '' ) ;
#23 = CIRCLE ( 'NONE', #54, 4.000000000000000000 ) ;
#24 = APPROVAL_STATUS ( 'not_yet_approved' ) ;
#25 = ADVANCED_FACE ( 'NONE', ( #232 ), #211, .T. ) ;
#26 = DATE_AND_TIME ( #9, #75 ) ;
#27 = ORIENTED_EDGE ( 'NONE', *, *, #125, .F. ) ;
#28 = AXIS2_PLACEMENT_3D ( 'NONE', #30, #229, #149 ) ;
#29 = CARTESIAN_POINT ( 'NONE',  ( 0.000000000000000000, 0.000000000000000000, 100.0000000000000000 ) ) ;
#30 = CARTESIAN_POINT ( 'NONE',  ( 0.000000000000000000, 0.000000000000000000, 100.0000000000000000 ) ) ;
#31 = LINE ( 'NONE', #55, #77 ) ;
#32 = DIRECTION ( 'NONE',  ( 0.000000000000000000, 0.000000000000000000, 1.000000000000000000 ) ) ;
#33 = EDGE_CURVE ( 'NONE', #213, #152, #181, .T. ) ;
#34 = PLANE ( 'NONE',  #186 ) ;
#35 = APPROVAL ( #24, 'NEURÈENÝ' ) ;
#36 = CARTESIAN_POINT ( 'NONE',  ( 0.000000000000000000, 0.000000000000000000, 100.0000000000000000 ) ) ;
#37 = APPROVAL_PERSON_ORGANIZATION ( #220, #185, #22 ) ;
#38 = CALENDAR_DATE ( 2023, 12, 2 ) ;
#39 = DIRECTION ( 'NONE',  ( 1.000000000000000000, 0.000000000000000000, -0.000000000000000000 ) ) ;
#40 = ORIENTED_EDGE ( 'NONE', *, *, #42, .F. ) ;
#41 = ADVANCED_FACE ( 'NONE', ( #150 ), #107, .T. ) ;
#42 = EDGE_CURVE ( 'NONE', #152, #7, #129, .T. ) ;
#43 = VERTEX_POINT ( 'NONE', #70 ) ;
#44 = VERTEX_POINT ( 'NONE', #67 ) ;
#45 = PERSON_AND_ORGANIZATION ( #48, #187 ) ;
#46 = CC_DESIGN_SECURITY_CLASSIFICATION ( #94, ( #158 ) ) ;
#47 = DIRECTION ( 'NONE',  ( 0.000000000000000000, 0.000000000000000000, 1.000000000000000000 ) ) ;
#48 = PERSON ( 'NEURÈENÝ', 'NEURÈENÝ', 'NEURÈENÝ', ('NEURÈENÝ'), ('NEURÈENÝ'), ('NEURÈENÝ') ) ;
#49 = AXIS2_PLACEMENT_3D ( 'NONE', #29, #151, #108 ) ;
#50 = CARTESIAN_POINT ( 'NONE',  ( 0.000000000000000000, 0.000000000000000000, 3.000000000000000000 ) ) ;
#51 = DIRECTION ( 'NONE',  ( 0.000000000000000000, 0.000000000000000000, 1.000000000000000000 ) ) ;
#52 = CARTESIAN_POINT ( 'NONE',  ( 0.000000000000000000, 0.000000000000000000, 3.000000000000000000 ) ) ;
#53 = CC_DESIGN_PERSON_AND_ORGANIZATION_ASSIGNMENT ( #238, #80, ( #158 ) ) ;
#54 = AXIS2_PLACEMENT_3D ( 'NONE', #88, #47, #169 ) ;
#55 = CARTESIAN_POINT ( 'NONE',  ( 4.000000000000000000, 4.898587196589412829E-16, 3.000000000000000000 ) ) ;
#56 = DIRECTION ( 'NONE',  ( 0.000000000000000000, 0.000000000000000000, 1.000000000000000000 ) ) ;
#57 = COORDINATED_UNIVERSAL_TIME_OFFSET ( 1, 0, .AHEAD. ) ;
#58 = CARTESIAN_POINT ( 'NONE',  ( 4.000000000000000000, 4.898587196589412829E-16, 3.000000000000000000 ) ) ;
#59 = AXIS2_PLACEMENT_3D ( 'NONE', #19, #56, #116 ) ;
#60 = APPLICATION_PROTOCOL_DEFINITION ( 'international standard', 'config_control_design', 1994, #254 ) ;
#61 = APPROVAL ( #159, 'NEURÈENÝ' ) ;
#62 = CIRCLE ( 'NONE', #239, 2.000000000000000000 ) ;
#63 = EDGE_LOOP ( 'NONE', ( #123, #78, #167, #117 ) ) ;
#64 = ORIENTED_EDGE ( 'NONE', *, *, #112, .F. ) ;
#65 = DIRECTION ( 'NONE',  ( 1.000000000000000000, 0.000000000000000000, -0.000000000000000000 ) ) ;
#66 = CARTESIAN_POINT ( 'NONE',  ( -4.000000000000000000, 0.000000000000000000, 3.000000000000000000 ) ) ;
#67 = CARTESIAN_POINT ( 'NONE',  ( 2.000000000000000000, 2.449293598294705921E-16, 3.000000000000000000 ) ) ;
#68 = DIRECTION ( 'NONE',  ( -0.000000000000000000, -0.000000000000000000, -1.000000000000000000 ) ) ;
#69 = LOCAL_TIME ( 13, 3, 12.00000000000000000, #57 ) ;
#70 = CARTESIAN_POINT ( 'NONE',  ( -2.000000000000000000, 0.000000000000000000, 3.000000000000000000 ) ) ;
#71 = EDGE_CURVE ( 'NONE', #152, #213, #23, .T. ) ;
#72 =( NAMED_UNIT ( * ) SI_UNIT ( $, .STERADIAN. ) SOLID_ANGLE_UNIT ( ) );
#73 = APPROVAL_DATE_TIME ( #180, #61 ) ;
#74 = DIRECTION ( 'NONE',  ( -0.000000000000000000, -0.000000000000000000, -1.000000000000000000 ) ) ;
#75 = LOCAL_TIME ( 13, 3, 12.00000000000000000, #148 ) ;
#76 = APPROVAL_DATE_TIME ( #101, #185 ) ;
#77 = VECTOR ( 'NONE', #14, 1000.000000000000000 ) ;
#78 = ORIENTED_EDGE ( 'NONE', *, *, #177, .F. ) ;
#79 = EDGE_CURVE ( 'NONE', #43, #44, #62, .T. ) ;
#80 = PERSON_AND_ORGANIZATION_ROLE ( 'design_supplier' ) ;
#81 = ORIENTED_EDGE ( 'NONE', *, *, #124, .T. ) ;
#82 = DATE_AND_TIME ( #164, #242 ) ;
#83 = SHAPE_DEFINITION_REPRESENTATION ( #178, #1 ) ;
#84 = ORIENTED_EDGE ( 'NONE', *, *, #153, .T. ) ;
#85 = CC_DESIGN_DATE_AND_TIME_ASSIGNMENT ( #175, #115, ( #183 ) ) ;
#86 = CARTESIAN_POINT ( 'NONE',  ( 0.000000000000000000, 0.000000000000000000, 3.000000000000000000 ) ) ;
#87 = EDGE_CURVE ( 'NONE', #103, #44, #245, .T. ) ;
#88 = CARTESIAN_POINT ( 'NONE',  ( 0.000000000000000000, 0.000000000000000000, 3.000000000000000000 ) ) ;
#89 = DIRECTION ( 'NONE',  ( 0.000000000000000000, 0.000000000000000000, 1.000000000000000000 ) ) ;
#90 = CARTESIAN_POINT ( 'NONE',  ( 0.000000000000000000, 0.000000000000000000, 100.0000000000000000 ) ) ;
#91 = CC_DESIGN_APPROVAL ( #35, ( #94 ) ) ;
#92 = AXIS2_PLACEMENT_3D ( 'NONE', #50, #228, #11 ) ;
#93 = DIRECTION ( 'NONE',  ( 0.000000000000000000, 0.000000000000000000, 1.000000000000000000 ) ) ;
#94 = SECURITY_CLASSIFICATION ( '', '', #143 ) ;
#95 = DIRECTION ( 'NONE',  ( 0.000000000000000000, 0.000000000000000000, 1.000000000000000000 ) ) ;
#96 = CC_DESIGN_PERSON_AND_ORGANIZATION_ASSIGNMENT ( #225, #6, ( #158 ) ) ;
#97 = VECTOR ( 'NONE', #192, 1000.000000000000000 ) ;
#98 = PLANE ( 'NONE',  #59 ) ;
#99 = AXIS2_PLACEMENT_3D ( 'NONE', #214, #32, #109 ) ;
#100 = ORIENTED_EDGE ( 'NONE', *, *, #33, .T. ) ;
#101 = DATE_AND_TIME ( #144, #20 ) ;
#102 = LOCAL_TIME ( 13, 3, 12.00000000000000000, #219 ) ;
#103 = VERTEX_POINT ( 'NONE', #13 ) ;
#104 = ADVANCED_FACE ( 'NONE', ( #250 ), #171, .T. ) ;
#105 = EDGE_LOOP ( 'NONE', ( #3, #126, #241, #216 ) ) ;
#106 = AXIS2_PLACEMENT_3D ( 'NONE', #133, #89, #172 ) ;
#107 = CYLINDRICAL_SURFACE ( 'NONE', #92, 4.000000000000000000 ) ;
#108 = DIRECTION ( 'NONE',  ( -1.000000000000000000, 0.000000000000000000, 0.000000000000000000 ) ) ;
#109 = DIRECTION ( 'NONE',  ( 1.000000000000000000, 0.000000000000000000, 0.000000000000000000 ) ) ;
#110 = DIRECTION ( 'NONE',  ( 1.000000000000000000, 0.000000000000000000, 0.000000000000000000 ) ) ;
#111 = CC_DESIGN_PERSON_AND_ORGANIZATION_ASSIGNMENT ( #198, #142, ( #15 ) ) ;
#112 = EDGE_CURVE ( 'NONE', #44, #43, #197, .T. ) ;
#113 = DIRECTION ( 'NONE',  ( 1.000000000000000000, 0.000000000000000000, 0.000000000000000000 ) ) ;
#114 = CC_DESIGN_APPROVAL ( #185, ( #158 ) ) ;
#115 = DATE_TIME_ROLE ( 'creation_date' ) ;
#116 = DIRECTION ( 'NONE',  ( 1.000000000000000000, 0.000000000000000000, -0.000000000000000000 ) ) ;
#117 = ORIENTED_EDGE ( 'NONE', *, *, #79, .T. ) ;
#118 = UNCERTAINTY_MEASURE_WITH_UNIT (LENGTH_MEASURE( 1.000000000000000082E-05 ), #202, 'distance_accuracy_value', 'NONE');
#119 = CC_DESIGN_APPROVAL ( #61, ( #183 ) ) ;
#120 = CLOSED_SHELL ( 'NONE', ( #25, #17, #41, #235, #136, #104, #168 ) ) ;
#121 = ORIENTED_EDGE ( 'NONE', *, *, #42, .T. ) ;
#122 = PERSON_AND_ORGANIZATION_ROLE ( 'classification_officer' ) ;
#123 = ORIENTED_EDGE ( 'NONE', *, *, #87, .F. ) ;
#124 = EDGE_CURVE ( 'NONE', #213, #189, #31, .T. ) ;
#125 = EDGE_CURVE ( 'NONE', #7, #189, #222, .T. ) ;
#126 = ORIENTED_EDGE ( 'NONE', *, *, #87, .T. ) ;
#127 = DIRECTION ( 'NONE',  ( -0.000000000000000000, -0.000000000000000000, -1.000000000000000000 ) ) ;
#128 = VECTOR ( 'NONE', #68, 1000.000000000000000 ) ;
#129 = LINE ( 'NONE', #154, #97 ) ;
#130 = APPROVAL_PERSON_ORGANIZATION ( #45, #35, #2 ) ;
#131 = DIRECTION ( 'NONE',  ( 1.000000000000000000, 0.000000000000000000, 0.000000000000000000 ) ) ;
#132 = DIRECTION ( 'NONE',  ( 0.000000000000000000, 0.000000000000000000, 1.000000000000000000 ) ) ;
#133 = CARTESIAN_POINT ( 'NONE',  ( 0.000000000000000000, 0.000000000000000000, 0.000000000000000000 ) ) ;
#134 = CC_DESIGN_PERSON_AND_ORGANIZATION_ASSIGNMENT ( #237, #140, ( #183 ) ) ;
#135 = DIRECTION ( 'NONE',  ( 0.000000000000000000, 0.000000000000000000, 1.000000000000000000 ) ) ;
#136 = ADVANCED_FACE ( 'NONE', ( #249 ), #34, .F. ) ;
#137 = PERSON_AND_ORGANIZATION ( #48, #187 ) ;
#138 = PRODUCT_RELATED_PRODUCT_CATEGORY ( 'detail', '', ( #15 ) ) ;
#139 = CALENDAR_DATE ( 2023, 12, 2 ) ;
#140 = PERSON_AND_ORGANIZATION_ROLE ( 'creator' ) ;
#141 = APPROVAL_PERSON_ORGANIZATION ( #137, #61, #236 ) ;
#142 = PERSON_AND_ORGANIZATION_ROLE ( 'design_owner' ) ;
#143 = SECURITY_CLASSIFICATION_LEVEL ( 'unclassified' ) ;
#144 = CALENDAR_DATE ( 2023, 12, 2 ) ;
#145 = ORIENTED_EDGE ( 'NONE', *, *, #33, .F. ) ;
#146 = DESIGN_CONTEXT ( 'detailed design', #166, 'design' ) ;
#147 = ORIENTED_EDGE ( 'NONE', *, *, #79, .F. ) ;
#148 = COORDINATED_UNIVERSAL_TIME_OFFSET ( 1, 0, .AHEAD. ) ;
#149 = DIRECTION ( 'NONE',  ( -1.000000000000000000, 0.000000000000000000, 0.000000000000000000 ) ) ;
#150 = FACE_OUTER_BOUND ( 'NONE', #188, .T. ) ;
#151 = DIRECTION ( 'NONE',  ( -0.000000000000000000, -0.000000000000000000, -1.000000000000000000 ) ) ;
#152 = VERTEX_POINT ( 'NONE', #66 ) ;
#153 = EDGE_CURVE ( 'NONE', #103, #227, #248, .T. ) ;
#154 = CARTESIAN_POINT ( 'NONE',  ( -4.000000000000000000, 0.000000000000000000, 3.000000000000000000 ) ) ;
#155 = CC_DESIGN_DATE_AND_TIME_ASSIGNMENT ( #26, #162, ( #94 ) ) ;
#156 = DIRECTION ( 'NONE',  ( 1.000000000000000000, 0.000000000000000000, 0.000000000000000000 ) ) ;
#157 = CARTESIAN_POINT ( 'NONE',  ( 0.000000000000000000, 0.000000000000000000, 0.000000000000000000 ) ) ;
#158 = PRODUCT_DEFINITION_FORMATION_WITH_SPECIFIED_SOURCE ( 'LIBOVOLNÝ', '', #15, .NOT_KNOWN. ) ;
#159 = APPROVAL_STATUS ( 'not_yet_approved' ) ;
#160 = DIRECTION ( 'NONE',  ( 1.000000000000000000, 0.000000000000000000, 0.000000000000000000 ) ) ;
#161 = DIRECTION ( 'NONE',  ( 0.000000000000000000, 0.000000000000000000, 1.000000000000000000 ) ) ;
#162 = DATE_TIME_ROLE ( 'classification_date' ) ;
#163 = EDGE_LOOP ( 'NONE', ( #226, #84 ) ) ;
#164 = CALENDAR_DATE ( 2023, 12, 2 ) ;
#165 = EDGE_LOOP ( 'NONE', ( #145, #81, #221, #40 ) ) ;
#166 = APPLICATION_CONTEXT ( 'configuration controlled 3d designs of mechanical parts and assemblies' ) ;
#167 = ORIENTED_EDGE ( 'NONE', *, *, #173, .T. ) ;
#168 = ADVANCED_FACE ( 'NONE', ( #194 ), #16, .T. ) ;
#169 = DIRECTION ( 'NONE',  ( 1.000000000000000000, 0.000000000000000000, 0.000000000000000000 ) ) ;
#170 = CARTESIAN_POINT ( 'NONE',  ( 0.000000000000000000, 0.000000000000000000, 3.000000000000000000 ) ) ;
#171 = CYLINDRICAL_SURFACE ( 'NONE', #49, 2.000000000000000000 ) ;
#172 = DIRECTION ( 'NONE',  ( 1.000000000000000000, 0.000000000000000000, 0.000000000000000000 ) ) ;
#173 = EDGE_CURVE ( 'NONE', #227, #43, #196, .T. ) ;
#174 = CYLINDRICAL_SURFACE ( 'NONE', #217, 4.000000000000000000 ) ;
#175 = DATE_AND_TIME ( #38, #102 ) ;
#176 = MECHANICAL_CONTEXT ( 'NONE', #254, 'mechanical' ) ;
#177 = EDGE_CURVE ( 'NONE', #227, #103, #231, .T. ) ;
#178 = PRODUCT_DEFINITION_SHAPE ( 'NONE', 'NONE',  #183 ) ;
#179 = FACE_BOUND ( 'NONE', #244, .T. ) ;
#180 = DATE_AND_TIME ( #139, #69 ) ;
#181 = CIRCLE ( 'NONE', #215, 4.000000000000000000 ) ;
#182 = CARTESIAN_POINT ( 'NONE',  ( 4.000000000000000000, 4.898587196589412829E-16, 0.000000000000000000 ) ) ;
#183 = PRODUCT_DEFINITION ( 'NEZNÁMÝ', '', #158, #146 ) ;
#184 = EDGE_LOOP ( 'NONE', ( #223, #100 ) ) ;
#185 = APPROVAL ( #200, 'NEURÈENÝ' ) ;
#186 = AXIS2_PLACEMENT_3D ( 'NONE', #246, #132, #65 ) ;
#187 = ORGANIZATION ( 'NEURÈENÝ', 'NEURÈENÝ', '' ) ;
#188 = EDGE_LOOP ( 'NONE', ( #204, #10, #121, #207 ) ) ;
#189 = VERTEX_POINT ( 'NONE', #182 ) ;
#190 = CARTESIAN_POINT ( 'NONE',  ( -4.000000000000000000, 0.000000000000000000, 0.000000000000000000 ) ) ;
#191 = AXIS2_PLACEMENT_3D ( 'NONE', #90, #95, #39 ) ;
#192 = DIRECTION ( 'NONE',  ( -0.000000000000000000, -0.000000000000000000, -1.000000000000000000 ) ) ;
#193 = CARTESIAN_POINT ( 'NONE',  ( 2.000000000000000000, 2.449293598294705921E-16, 100.0000000000000000 ) ) ;
#194 = FACE_OUTER_BOUND ( 'NONE', #163, .T. ) ;
#195 = DIRECTION ( 'NONE',  ( -1.000000000000000000, 0.000000000000000000, 0.000000000000000000 ) ) ;
#196 = LINE ( 'NONE', #218, #8 ) ;
#197 = CIRCLE ( 'NONE', #5, 2.000000000000000000 ) ;
#198 = PERSON_AND_ORGANIZATION ( #48, #187 ) ;
#199 = AXIS2_PLACEMENT_3D ( 'NONE', #36, #93, #160 ) ;
#200 = APPROVAL_STATUS ( 'not_yet_approved' ) ;
#201 = CC_DESIGN_PERSON_AND_ORGANIZATION_ASSIGNMENT ( #203, #122, ( #94 ) ) ;
#202 =( LENGTH_UNIT ( ) NAMED_UNIT ( * ) SI_UNIT ( .MILLI., .METRE. ) );
#203 = PERSON_AND_ORGANIZATION ( #48, #187 ) ;
#204 = ORIENTED_EDGE ( 'NONE', *, *, #124, .F. ) ;
#205 = APPROVAL_DATE_TIME ( #82, #35 ) ;
#206 = ORIENTED_EDGE ( 'NONE', *, *, #243, .F. ) ;
#207 = ORIENTED_EDGE ( 'NONE', *, *, #125, .T. ) ;
#208 = AXIS2_PLACEMENT_3D ( 'NONE', #157, #135, #113 ) ;
#209 = EDGE_LOOP ( 'NONE', ( #27, #206 ) ) ;
#210 = DIRECTION ( 'NONE',  ( 0.000000000000000000, 0.000000000000000000, 1.000000000000000000 ) ) ;
#211 = CYLINDRICAL_SURFACE ( 'NONE', #28, 2.000000000000000000 ) ;
#212 =( GEOMETRIC_REPRESENTATION_CONTEXT ( 3 ) GLOBAL_UNCERTAINTY_ASSIGNED_CONTEXT ( ( #118 ) ) GLOBAL_UNIT_ASSIGNED_CONTEXT ( ( #202, #234, #72 ) ) REPRESENTATION_CONTEXT ( 'NONE', 'WORKASPACE' ) );
#213 = VERTEX_POINT ( 'NONE', #58 ) ;
#214 = CARTESIAN_POINT ( 'NONE',  ( 0.000000000000000000, 0.000000000000000000, 100.0000000000000000 ) ) ;
#215 = AXIS2_PLACEMENT_3D ( 'NONE', #18, #210, #233 ) ;
#216 = ORIENTED_EDGE ( 'NONE', *, *, #173, .F. ) ;
#217 = AXIS2_PLACEMENT_3D ( 'NONE', #86, #127, #195 ) ;
#218 = CARTESIAN_POINT ( 'NONE',  ( -2.000000000000000000, 0.000000000000000000, 100.0000000000000000 ) ) ;
#219 = COORDINATED_UNIVERSAL_TIME_OFFSET ( 1, 0, .AHEAD. ) ;
#220 = PERSON_AND_ORGANIZATION ( #48, #187 ) ;
#221 = ORIENTED_EDGE ( 'NONE', *, *, #243, .T. ) ;
#222 = CIRCLE ( 'NONE', #106, 4.000000000000000000 ) ;
#223 = ORIENTED_EDGE ( 'NONE', *, *, #71, .T. ) ;
#224 = CIRCLE ( 'NONE', #12, 4.000000000000000000 ) ;
#225 = PERSON_AND_ORGANIZATION ( #48, #187 ) ;
#226 = ORIENTED_EDGE ( 'NONE', *, *, #177, .T. ) ;
#227 = VERTEX_POINT ( 'NONE', #255 ) ;
#228 = DIRECTION ( 'NONE',  ( -0.000000000000000000, -0.000000000000000000, -1.000000000000000000 ) ) ;
#229 = DIRECTION ( 'NONE',  ( -0.000000000000000000, -0.000000000000000000, -1.000000000000000000 ) ) ;
#230 = DIRECTION ( 'NONE',  ( 0.000000000000000000, 0.000000000000000000, 1.000000000000000000 ) ) ;
#231 = CIRCLE ( 'NONE', #199, 2.000000000000000000 ) ;
#232 = FACE_OUTER_BOUND ( 'NONE', #105, .T. ) ;
#233 = DIRECTION ( 'NONE',  ( 1.000000000000000000, 0.000000000000000000, 0.000000000000000000 ) ) ;
#234 =( NAMED_UNIT ( * ) PLANE_ANGLE_UNIT ( ) SI_UNIT ( $, .RADIAN. ) );
#235 = ADVANCED_FACE ( 'NONE', ( #179, #253 ), #98, .T. ) ;
#236 = APPROVAL_ROLE ( '' ) ;
#237 = PERSON_AND_ORGANIZATION ( #48, #187 ) ;
#238 = PERSON_AND_ORGANIZATION ( #48, #187 ) ;
#239 = AXIS2_PLACEMENT_3D ( 'NONE', #52, #230, #110 ) ;
#240 = COORDINATED_UNIVERSAL_TIME_OFFSET ( 1, 0, .AHEAD. ) ;
#241 = ORIENTED_EDGE ( 'NONE', *, *, #112, .T. ) ;
#242 = LOCAL_TIME ( 13, 3, 12.00000000000000000, #240 ) ;
#243 = EDGE_CURVE ( 'NONE', #189, #7, #224, .T. ) ;
#244 = EDGE_LOOP ( 'NONE', ( #147, #64 ) ) ;
#245 = LINE ( 'NONE', #193, #128 ) ;
#246 = CARTESIAN_POINT ( 'NONE',  ( 0.000000000000000000, 0.000000000000000000, 0.000000000000000000 ) ) ;
#247 = FACE_OUTER_BOUND ( 'NONE', #165, .T. ) ;
#248 = CIRCLE ( 'NONE', #99, 2.000000000000000000 ) ;
#249 = FACE_OUTER_BOUND ( 'NONE', #209, .T. ) ;
#250 = FACE_OUTER_BOUND ( 'NONE', #63, .T. ) ;
#251 = COORDINATED_UNIVERSAL_TIME_OFFSET ( 1, 0, .AHEAD. ) ;
#252 = APPLICATION_PROTOCOL_DEFINITION ( 'international standard', 'config_control_design', 1994, #166 ) ;
#253 = FACE_OUTER_BOUND ( 'NONE', #184, .T. ) ;
#254 = APPLICATION_CONTEXT ( 'configuration controlled 3d designs of mechanical parts and assemblies' ) ;
#255 = CARTESIAN_POINT ( 'NONE',  ( -2.000000000000000000, 0.000000000000000000, 100.0000000000000000 ) ) ;
ENDSEC;
END-ISO-10303-21;
