ISO-10303-21;
HEADER;
FILE_DESCRIPTION (( 'STEP AP203' ),
    '1' );
FILE_NAME ('f4af.STEP',
    '2023-02-12T10:58:30',
    ( '' ),
    ( '' ),
    'SwSTEP 2.0',
    'SolidWorks 2019',
    '' );
FILE_SCHEMA (( 'CONFIG_CONTROL_DESIGN' ));
ENDSEC;

DATA;
#1 = ORGANIZATION ( 'NEURÈENÝ', 'NEURÈENÝ', '' ) ;
#2 = DIRECTION ( 'NONE',  ( -0.000000000000000000, -0.000000000000000000, -1.000000000000000000 ) ) ;
#3 = APPROVAL_STATUS ( 'not_yet_approved' ) ;
#4 = DIRECTION ( 'NONE',  ( 1.000000000000000000, 0.000000000000000000, 0.000000000000000000 ) ) ;
#5 = VERTEX_POINT ( 'NONE', #160 ) ;
#6 = CARTESIAN_POINT ( 'NONE',  ( 0.000000000000000000, 0.000000000000000000, 0.000000000000000000 ) ) ;
#7 = DIRECTION ( 'NONE',  ( 1.000000000000000000, 0.000000000000000000, 0.000000000000000000 ) ) ;
#8 = CC_DESIGN_DATE_AND_TIME_ASSIGNMENT ( #65, #146, ( #148 ) ) ;
#9 = PERSON_AND_ORGANIZATION ( #231, #1 ) ;
#10 = CARTESIAN_POINT ( 'NONE',  ( -8.000000000000000000, 0.000000000000000000, 5.000000000000000000 ) ) ;
#11 = APPROVAL_DATE_TIME ( #190, #206 ) ;
#12 = CC_DESIGN_PERSON_AND_ORGANIZATION_ASSIGNMENT ( #9, #48, ( #135 ) ) ;
#13 = AXIS2_PLACEMENT_3D ( 'NONE', #96, #15, #89 ) ;
#14 = PRODUCT_DEFINITION_SHAPE ( 'NONE', 'NONE',  #223 ) ;
#15 = DIRECTION ( 'NONE',  ( -0.000000000000000000, -0.000000000000000000, -1.000000000000000000 ) ) ;
#16 = CARTESIAN_POINT ( 'NONE',  ( 0.000000000000000000, 0.000000000000000000, 400.0000000000000000 ) ) ;
#17 = DIRECTION ( 'NONE',  ( -1.000000000000000000, 0.000000000000000000, 0.000000000000000000 ) ) ;
#18 = AXIS2_PLACEMENT_3D ( 'NONE', #204, #84, #229 ) ;
#19 = VERTEX_POINT ( 'NONE', #164 ) ;
#20 = ORIENTED_EDGE ( 'NONE', *, *, #68, .T. ) ;
#21 = DIRECTION ( 'NONE',  ( 1.000000000000000000, 0.000000000000000000, 0.000000000000000000 ) ) ;
#22 = CC_DESIGN_SECURITY_CLASSIFICATION ( #148, ( #135 ) ) ;
#23 = ORIENTED_EDGE ( 'NONE', *, *, #71, .T. ) ;
#24 = PERSON_AND_ORGANIZATION ( #231, #1 ) ;
#25 = CYLINDRICAL_SURFACE ( 'NONE', #227, 8.000000000000000000 ) ;
#26 = ORIENTED_EDGE ( 'NONE', *, *, #68, .F. ) ;
#27 = ADVANCED_FACE ( 'NONE', ( #221 ), #39, .F. ) ;
#28 = CARTESIAN_POINT ( 'NONE',  ( 0.000000000000000000, 0.000000000000000000, 400.0000000000000000 ) ) ;
#29 = CIRCLE ( 'NONE', #162, 5.099999999999999645 ) ;
#30 = DIRECTION ( 'NONE',  ( -0.000000000000000000, -0.000000000000000000, -1.000000000000000000 ) ) ;
#31 = CARTESIAN_POINT ( 'NONE',  ( -5.099999999999999645, 0.000000000000000000, 5.000000000000000000 ) ) ;
#32 = LOCAL_TIME ( 11, 58, 30.00000000000000000, #125 ) ;
#33 = APPROVAL ( #63, 'NEURÈENÝ' ) ;
#34 = CARTESIAN_POINT ( 'NONE',  ( 0.000000000000000000, 0.000000000000000000, 5.000000000000000000 ) ) ;
#35 = VECTOR ( 'NONE', #41, 1000.000000000000000 ) ;
#36 = DIRECTION ( 'NONE',  ( 1.000000000000000000, 0.000000000000000000, 0.000000000000000000 ) ) ;
#37 = CARTESIAN_POINT ( 'NONE',  ( -8.000000000000000000, 0.000000000000000000, 5.000000000000000000 ) ) ;
#38 = AXIS2_PLACEMENT_3D ( 'NONE', #34, #52, #36 ) ;
#39 = PLANE ( 'NONE',  #195 ) ;
#40 = DIRECTION ( 'NONE',  ( -0.000000000000000000, -0.000000000000000000, -1.000000000000000000 ) ) ;
#41 = DIRECTION ( 'NONE',  ( -0.000000000000000000, -0.000000000000000000, -1.000000000000000000 ) ) ;
#42 = DIRECTION ( 'NONE',  ( 1.000000000000000000, 0.000000000000000000, 0.000000000000000000 ) ) ;
#43 = ADVANCED_FACE ( 'NONE', ( #138 ), #251, .T. ) ;
#44 = CARTESIAN_POINT ( 'NONE',  ( 0.000000000000000000, 0.000000000000000000, 0.000000000000000000 ) ) ;
#45 = DIRECTION ( 'NONE',  ( 0.000000000000000000, 0.000000000000000000, 1.000000000000000000 ) ) ;
#46 = PERSON_AND_ORGANIZATION ( #231, #1 ) ;
#47 = EDGE_CURVE ( 'NONE', #100, #5, #222, .T. ) ;
#48 = PERSON_AND_ORGANIZATION_ROLE ( 'design_supplier' ) ;
#49 = COORDINATED_UNIVERSAL_TIME_OFFSET ( 1, 0, .AHEAD. ) ;
#50 = PRODUCT ( 'f4af', 'f4af', '', ( #57 ) ) ;
#51 = APPROVAL_DATE_TIME ( #153, #33 ) ;
#52 = DIRECTION ( 'NONE',  ( 0.000000000000000000, 0.000000000000000000, 1.000000000000000000 ) ) ;
#53 = DIRECTION ( 'NONE',  ( 0.000000000000000000, 0.000000000000000000, 1.000000000000000000 ) ) ;
#54 = APPROVAL_PERSON_ORGANIZATION ( #88, #33, #151 ) ;
#55 = ORIENTED_EDGE ( 'NONE', *, *, #188, .T. ) ;
#56 = DIRECTION ( 'NONE',  ( 0.000000000000000000, 0.000000000000000000, 1.000000000000000000 ) ) ;
#57 = MECHANICAL_CONTEXT ( 'NONE', #98, 'mechanical' ) ;
#58 = CARTESIAN_POINT ( 'NONE',  ( 0.000000000000000000, 0.000000000000000000, 5.000000000000000000 ) ) ;
#59 = EDGE_CURVE ( 'NONE', #184, #19, #120, .T. ) ;
#60 = CARTESIAN_POINT ( 'NONE',  ( -5.099999999999999645, 0.000000000000000000, 400.0000000000000000 ) ) ;
#61 = PERSON_AND_ORGANIZATION_ROLE ( 'design_owner' ) ;
#62 = CIRCLE ( 'NONE', #99, 8.000000000000000000 ) ;
#63 = APPROVAL_STATUS ( 'not_yet_approved' ) ;
#64 = ORIENTED_EDGE ( 'NONE', *, *, #255, .F. ) ;
#65 = DATE_AND_TIME ( #108, #32 ) ;
#66 = PERSON_AND_ORGANIZATION_ROLE ( 'creator' ) ;
#67 = DATE_TIME_ROLE ( 'creation_date' ) ;
#68 = EDGE_CURVE ( 'NONE', #116, #159, #218, .T. ) ;
#69 = CALENDAR_DATE ( 2023, 12, 2 ) ;
#70 = CARTESIAN_POINT ( 'NONE',  ( 0.000000000000000000, 0.000000000000000000, 400.0000000000000000 ) ) ;
#71 = EDGE_CURVE ( 'NONE', #159, #72, #167, .T. ) ;
#72 = VERTEX_POINT ( 'NONE', #112 ) ;
#73 = ORIENTED_EDGE ( 'NONE', *, *, #59, .T. ) ;
#74 = UNCERTAINTY_MEASURE_WITH_UNIT (LENGTH_MEASURE( 1.000000000000000082E-05 ), #139, 'distance_accuracy_value', 'NONE');
#75 = ORIENTED_EDGE ( 'NONE', *, *, #203, .F. ) ;
#76 = EDGE_LOOP ( 'NONE', ( #210, #23, #152, #129 ) ) ;
#77 = AXIS2_PLACEMENT_3D ( 'NONE', #6, #224, #105 ) ;
#78 = CC_DESIGN_PERSON_AND_ORGANIZATION_ASSIGNMENT ( #170, #61, ( #50 ) ) ;
#79 = APPROVAL_ROLE ( '' ) ;
#80 = CIRCLE ( 'NONE', #38, 8.000000000000000000 ) ;
#81 = ADVANCED_FACE ( 'NONE', ( #182 ), #192, .T. ) ;
#82 = PERSON_AND_ORGANIZATION_ROLE ( 'classification_officer' ) ;
#83 = CARTESIAN_POINT ( 'NONE',  ( 0.000000000000000000, 0.000000000000000000, 5.000000000000000000 ) ) ;
#84 = DIRECTION ( 'NONE',  ( 0.000000000000000000, 0.000000000000000000, 1.000000000000000000 ) ) ;
#85 = DATE_AND_TIME ( #230, #250 ) ;
#86 = ADVANCED_FACE ( 'NONE', ( #177 ), #114, .T. ) ;
#87 = FACE_OUTER_BOUND ( 'NONE', #180, .T. ) ;
#88 = PERSON_AND_ORGANIZATION ( #231, #1 ) ;
#89 = DIRECTION ( 'NONE',  ( -1.000000000000000000, 0.000000000000000000, 0.000000000000000000 ) ) ;
#90 = CARTESIAN_POINT ( 'NONE',  ( 5.099999999999999645, 6.245698675651499853E-16, 400.0000000000000000 ) ) ;
#91 = EDGE_LOOP ( 'NONE', ( #248, #154 ) ) ;
#92 = PLANE ( 'NONE',  #18 ) ;
#93 = PERSON_AND_ORGANIZATION ( #231, #1 ) ;
#94 = ORIENTED_EDGE ( 'NONE', *, *, #214, .T. ) ;
#95 = CIRCLE ( 'NONE', #77, 8.000000000000000000 ) ;
#96 = CARTESIAN_POINT ( 'NONE',  ( 0.000000000000000000, 0.000000000000000000, 400.0000000000000000 ) ) ;
#97 = CC_DESIGN_DATE_AND_TIME_ASSIGNMENT ( #85, #67, ( #223 ) ) ;
#98 = APPLICATION_CONTEXT ( 'configuration controlled 3d designs of mechanical parts and assemblies' ) ;
#99 = AXIS2_PLACEMENT_3D ( 'NONE', #44, #155, #149 ) ;
#100 = VERTEX_POINT ( 'NONE', #10 ) ;
#101 = APPLICATION_PROTOCOL_DEFINITION ( 'international standard', 'config_control_design', 1994, #150 ) ;
#102 = CIRCLE ( 'NONE', #128, 8.000000000000000000 ) ;
#103 = EDGE_LOOP ( 'NONE', ( #75, #73, #94, #132 ) ) ;
#104 = CARTESIAN_POINT ( 'NONE',  ( 0.000000000000000000, 0.000000000000000000, 5.000000000000000000 ) ) ;
#105 = DIRECTION ( 'NONE',  ( 1.000000000000000000, 0.000000000000000000, 0.000000000000000000 ) ) ;
#106 = PERSON_AND_ORGANIZATION_ROLE ( 'creator' ) ;
#107 = CC_DESIGN_APPROVAL ( #206, ( #223 ) ) ;
#108 = CALENDAR_DATE ( 2023, 12, 2 ) ;
#109 = CC_DESIGN_PERSON_AND_ORGANIZATION_ASSIGNMENT ( #24, #106, ( #135 ) ) ;
#110 =( NAMED_UNIT ( * ) PLANE_ANGLE_UNIT ( ) SI_UNIT ( $, .RADIAN. ) );
#111 = CARTESIAN_POINT ( 'NONE',  ( 8.000000000000000000, 9.797174393178825657E-16, 5.000000000000000000 ) ) ;
#112 = CARTESIAN_POINT ( 'NONE',  ( 5.099999999999999645, 6.245698675651499853E-16, 5.000000000000000000 ) ) ;
#113 = APPROVAL_DATE_TIME ( #252, #201 ) ;
#114 = CYLINDRICAL_SURFACE ( 'NONE', #145, 5.099999999999999645 ) ;
#115 = FACE_BOUND ( 'NONE', #91, .T. ) ;
#116 = VERTEX_POINT ( 'NONE', #174 ) ;
#117 = DIRECTION ( 'NONE',  ( 1.000000000000000000, 0.000000000000000000, 0.000000000000000000 ) ) ;
#118 = DIRECTION ( 'NONE',  ( -1.000000000000000000, 0.000000000000000000, 0.000000000000000000 ) ) ;
#119 = AXIS2_PLACEMENT_3D ( 'NONE', #235, #53, #143 ) ;
#120 = LINE ( 'NONE', #130, #186 ) ;
#121 = DESIGN_CONTEXT ( 'detailed design', #150, 'design' ) ;
#122 = APPROVAL_PERSON_ORGANIZATION ( #185, #206, #79 ) ;
#123 = CARTESIAN_POINT ( 'NONE',  ( 0.000000000000000000, 0.000000000000000000, 0.000000000000000000 ) ) ;
#124 = FACE_OUTER_BOUND ( 'NONE', #103, .T. ) ;
#125 = COORDINATED_UNIVERSAL_TIME_OFFSET ( 1, 0, .AHEAD. ) ;
#126 = APPROVAL_PERSON_ORGANIZATION ( #93, #201, #233 ) ;
#127 = EDGE_CURVE ( 'NONE', #172, #72, #29, .T. ) ;
#128 = AXIS2_PLACEMENT_3D ( 'NONE', #58, #200, #21 ) ;
#129 = ORIENTED_EDGE ( 'NONE', *, *, #133, .F. ) ;
#130 = CARTESIAN_POINT ( 'NONE',  ( 8.000000000000000000, 9.797174393178825657E-16, 5.000000000000000000 ) ) ;
#131 = CC_DESIGN_APPROVAL ( #201, ( #148 ) ) ;
#132 = ORIENTED_EDGE ( 'NONE', *, *, #47, .F. ) ;
#133 = EDGE_CURVE ( 'NONE', #116, #172, #242, .T. ) ;
#134 = ORIENTED_EDGE ( 'NONE', *, *, #203, .T. ) ;
#135 = PRODUCT_DEFINITION_FORMATION_WITH_SPECIFIED_SOURCE ( 'LIBOVOLNÝ', '', #50, .NOT_KNOWN. ) ;
#136 = PRODUCT_RELATED_PRODUCT_CATEGORY ( 'detail', '', ( #50 ) ) ;
#137 = ORIENTED_EDGE ( 'NONE', *, *, #47, .T. ) ;
#138 = FACE_OUTER_BOUND ( 'NONE', #198, .T. ) ;
#139 =( LENGTH_UNIT ( ) NAMED_UNIT ( * ) SI_UNIT ( .MILLI., .METRE. ) );
#140 = ORIENTED_EDGE ( 'NONE', *, *, #133, .T. ) ;
#141 = CARTESIAN_POINT ( 'NONE',  ( 5.099999999999999645, 6.245698675651499853E-16, 400.0000000000000000 ) ) ;
#142 = DIRECTION ( 'NONE',  ( 0.000000000000000000, 0.000000000000000000, 1.000000000000000000 ) ) ;
#143 = DIRECTION ( 'NONE',  ( 1.000000000000000000, 0.000000000000000000, 0.000000000000000000 ) ) ;
#144 = EDGE_CURVE ( 'NONE', #5, #19, #62, .T. ) ;
#145 = AXIS2_PLACEMENT_3D ( 'NONE', #16, #197, #17 ) ;
#146 = DATE_TIME_ROLE ( 'classification_date' ) ;
#147 = CC_DESIGN_PERSON_AND_ORGANIZATION_ASSIGNMENT ( #46, #82, ( #148 ) ) ;
#148 = SECURITY_CLASSIFICATION ( '', '', #243 ) ;
#149 = DIRECTION ( 'NONE',  ( 1.000000000000000000, 0.000000000000000000, 0.000000000000000000 ) ) ;
#150 = APPLICATION_CONTEXT ( 'configuration controlled 3d designs of mechanical parts and assemblies' ) ;
#151 = APPROVAL_ROLE ( '' ) ;
#152 = ORIENTED_EDGE ( 'NONE', *, *, #245, .T. ) ;
#153 = DATE_AND_TIME ( #69, #236 ) ;
#154 = ORIENTED_EDGE ( 'NONE', *, *, #245, .F. ) ;
#155 = DIRECTION ( 'NONE',  ( 0.000000000000000000, 0.000000000000000000, 1.000000000000000000 ) ) ;
#156 = DIRECTION ( 'NONE',  ( 0.000000000000000000, 0.000000000000000000, 1.000000000000000000 ) ) ;
#157 = EDGE_LOOP ( 'NONE', ( #196, #134 ) ) ;
#158 = DIRECTION ( 'NONE',  ( -0.000000000000000000, -0.000000000000000000, -1.000000000000000000 ) ) ;
#159 = VERTEX_POINT ( 'NONE', #90 ) ;
#160 = CARTESIAN_POINT ( 'NONE',  ( -8.000000000000000000, 0.000000000000000000, 0.000000000000000000 ) ) ;
#161 = ORIENTED_EDGE ( 'NONE', *, *, #71, .F. ) ;
#162 = AXIS2_PLACEMENT_3D ( 'NONE', #104, #187, #7 ) ;
#163 = AXIS2_PLACEMENT_3D ( 'NONE', #226, #45, #4 ) ;
#164 = CARTESIAN_POINT ( 'NONE',  ( 8.000000000000000000, 9.797174393178825657E-16, 0.000000000000000000 ) ) ;
#165 = APPLICATION_PROTOCOL_DEFINITION ( 'international standard', 'config_control_design', 1994, #98 ) ;
#166 = ORIENTED_EDGE ( 'NONE', *, *, #144, .T. ) ;
#167 = LINE ( 'NONE', #141, #246 ) ;
#168 = CLOSED_SHELL ( 'NONE', ( #81, #249, #191, #181, #27, #86, #43 ) ) ;
#169 = EDGE_LOOP ( 'NONE', ( #161, #26, #140, #183 ) ) ;
#170 = PERSON_AND_ORGANIZATION ( #231, #1 ) ;
#171 = ORIENTED_EDGE ( 'NONE', *, *, #59, .F. ) ;
#172 = VERTEX_POINT ( 'NONE', #31 ) ;
#173 = CIRCLE ( 'NONE', #119, 5.099999999999999645 ) ;
#174 = CARTESIAN_POINT ( 'NONE',  ( -5.099999999999999645, 0.000000000000000000, 400.0000000000000000 ) ) ;
#175 = PERSON_AND_ORGANIZATION ( #231, #1 ) ;
#176 = CYLINDRICAL_SURFACE ( 'NONE', #207, 8.000000000000000000 ) ;
#177 = FACE_OUTER_BOUND ( 'NONE', #169, .T. ) ;
#178 = AXIS2_PLACEMENT_3D ( 'NONE', #123, #142, #42 ) ;
#179 = APPROVAL_STATUS ( 'not_yet_approved' ) ;
#180 = EDGE_LOOP ( 'NONE', ( #171, #64, #137, #166 ) ) ;
#181 = ADVANCED_FACE ( 'NONE', ( #115, #253 ), #92, .T. ) ;
#182 = FACE_OUTER_BOUND ( 'NONE', #76, .T. ) ;
#183 = ORIENTED_EDGE ( 'NONE', *, *, #127, .T. ) ;
#184 = VERTEX_POINT ( 'NONE', #111 ) ;
#185 = PERSON_AND_ORGANIZATION ( #231, #1 ) ;
#186 = VECTOR ( 'NONE', #2, 1000.000000000000000 ) ;
#187 = DIRECTION ( 'NONE',  ( 0.000000000000000000, 0.000000000000000000, 1.000000000000000000 ) ) ;
#188 = EDGE_CURVE ( 'NONE', #159, #116, #173, .T. ) ;
#189 = ORIENTED_EDGE ( 'NONE', *, *, #214, .F. ) ;
#190 = DATE_AND_TIME ( #205, #220 ) ;
#191 = ADVANCED_FACE ( 'NONE', ( #87 ), #176, .T. ) ;
#192 = CYLINDRICAL_SURFACE ( 'NONE', #13, 5.099999999999999645 ) ;
#193 = ADVANCED_BREP_SHAPE_REPRESENTATION ( 'f4af', ( #209, #178 ), #234 ) ;
#194 = SHAPE_DEFINITION_REPRESENTATION ( #14, #193 ) ;
#195 = AXIS2_PLACEMENT_3D ( 'NONE', #237, #156, #239 ) ;
#196 = ORIENTED_EDGE ( 'NONE', *, *, #255, .T. ) ;
#197 = DIRECTION ( 'NONE',  ( -0.000000000000000000, -0.000000000000000000, -1.000000000000000000 ) ) ;
#198 = EDGE_LOOP ( 'NONE', ( #20, #55 ) ) ;
#199 = AXIS2_PLACEMENT_3D ( 'NONE', #28, #56, #232 ) ;
#200 = DIRECTION ( 'NONE',  ( 0.000000000000000000, 0.000000000000000000, 1.000000000000000000 ) ) ;
#201 = APPROVAL ( #179, 'NEURÈENÝ' ) ;
#202 = AXIS2_PLACEMENT_3D ( 'NONE', #70, #212, #117 ) ;
#203 = EDGE_CURVE ( 'NONE', #184, #100, #80, .T. ) ;
#204 = CARTESIAN_POINT ( 'NONE',  ( 0.000000000000000000, 0.000000000000000000, 5.000000000000000000 ) ) ;
#205 = CALENDAR_DATE ( 2023, 12, 2 ) ;
#206 = APPROVAL ( #3, 'NEURÈENÝ' ) ;
#207 = AXIS2_PLACEMENT_3D ( 'NONE', #219, #158, #216 ) ;
#208 =( NAMED_UNIT ( * ) SI_UNIT ( $, .STERADIAN. ) SOLID_ANGLE_UNIT ( ) );
#209 = MANIFOLD_SOLID_BREP ( 'Pøidat vysunutím3', #168 ) ;
#210 = ORIENTED_EDGE ( 'NONE', *, *, #188, .F. ) ;
#211 = VECTOR ( 'NONE', #225, 1000.000000000000000 ) ;
#212 = DIRECTION ( 'NONE',  ( 0.000000000000000000, 0.000000000000000000, 1.000000000000000000 ) ) ;
#213 = ORIENTED_EDGE ( 'NONE', *, *, #144, .F. ) ;
#214 = EDGE_CURVE ( 'NONE', #19, #5, #95, .T. ) ;
#215 = LOCAL_TIME ( 11, 58, 30.00000000000000000, #254 ) ;
#216 = DIRECTION ( 'NONE',  ( -1.000000000000000000, 0.000000000000000000, 0.000000000000000000 ) ) ;
#217 = CALENDAR_DATE ( 2023, 12, 2 ) ;
#218 = CIRCLE ( 'NONE', #202, 5.099999999999999645 ) ;
#219 = CARTESIAN_POINT ( 'NONE',  ( 0.000000000000000000, 0.000000000000000000, 5.000000000000000000 ) ) ;
#220 = LOCAL_TIME ( 11, 58, 30.00000000000000000, #240 ) ;
#221 = FACE_OUTER_BOUND ( 'NONE', #228, .T. ) ;
#222 = LINE ( 'NONE', #37, #35 ) ;
#223 = PRODUCT_DEFINITION ( 'NEZNÁMÝ', '', #135, #121 ) ;
#224 = DIRECTION ( 'NONE',  ( 0.000000000000000000, 0.000000000000000000, 1.000000000000000000 ) ) ;
#225 = DIRECTION ( 'NONE',  ( -0.000000000000000000, -0.000000000000000000, -1.000000000000000000 ) ) ;
#226 = CARTESIAN_POINT ( 'NONE',  ( 0.000000000000000000, 0.000000000000000000, 5.000000000000000000 ) ) ;
#227 = AXIS2_PLACEMENT_3D ( 'NONE', #83, #40, #118 ) ;
#228 = EDGE_LOOP ( 'NONE', ( #213, #189 ) ) ;
#229 = DIRECTION ( 'NONE',  ( 1.000000000000000000, 0.000000000000000000, -0.000000000000000000 ) ) ;
#230 = CALENDAR_DATE ( 2023, 12, 2 ) ;
#231 = PERSON ( 'NEURÈENÝ', 'NEURÈENÝ', 'NEURÈENÝ', ('NEURÈENÝ'), ('NEURÈENÝ'), ('NEURÈENÝ') ) ;
#232 = DIRECTION ( 'NONE',  ( 1.000000000000000000, 0.000000000000000000, -0.000000000000000000 ) ) ;
#233 = APPROVAL_ROLE ( '' ) ;
#234 =( GEOMETRIC_REPRESENTATION_CONTEXT ( 3 ) GLOBAL_UNCERTAINTY_ASSIGNED_CONTEXT ( ( #74 ) ) GLOBAL_UNIT_ASSIGNED_CONTEXT ( ( #139, #110, #208 ) ) REPRESENTATION_CONTEXT ( 'NONE', 'WORKASPACE' ) );
#235 = CARTESIAN_POINT ( 'NONE',  ( 0.000000000000000000, 0.000000000000000000, 400.0000000000000000 ) ) ;
#236 = LOCAL_TIME ( 11, 58, 30.00000000000000000, #247 ) ;
#237 = CARTESIAN_POINT ( 'NONE',  ( 0.000000000000000000, 0.000000000000000000, 0.000000000000000000 ) ) ;
#238 = CC_DESIGN_PERSON_AND_ORGANIZATION_ASSIGNMENT ( #175, #66, ( #223 ) ) ;
#239 = DIRECTION ( 'NONE',  ( 1.000000000000000000, 0.000000000000000000, -0.000000000000000000 ) ) ;
#240 = COORDINATED_UNIVERSAL_TIME_OFFSET ( 1, 0, .AHEAD. ) ;
#241 = CIRCLE ( 'NONE', #163, 5.099999999999999645 ) ;
#242 = LINE ( 'NONE', #60, #211 ) ;
#243 = SECURITY_CLASSIFICATION_LEVEL ( 'unclassified' ) ;
#244 = CC_DESIGN_APPROVAL ( #33, ( #135 ) ) ;
#245 = EDGE_CURVE ( 'NONE', #72, #172, #241, .T. ) ;
#246 = VECTOR ( 'NONE', #30, 1000.000000000000000 ) ;
#247 = COORDINATED_UNIVERSAL_TIME_OFFSET ( 1, 0, .AHEAD. ) ;
#248 = ORIENTED_EDGE ( 'NONE', *, *, #127, .F. ) ;
#249 = ADVANCED_FACE ( 'NONE', ( #124 ), #25, .T. ) ;
#250 = LOCAL_TIME ( 11, 58, 30.00000000000000000, #49 ) ;
#251 = PLANE ( 'NONE',  #199 ) ;
#252 = DATE_AND_TIME ( #217, #215 ) ;
#253 = FACE_OUTER_BOUND ( 'NONE', #157, .T. ) ;
#254 = COORDINATED_UNIVERSAL_TIME_OFFSET ( 1, 0, .AHEAD. ) ;
#255 = EDGE_CURVE ( 'NONE', #100, #184, #102, .T. ) ;
ENDSEC;
END-ISO-10303-21;
