ISO-10303-21;
HEADER;
FILE_DESCRIPTION (( 'STEP AP203' ),
    '1' );
FILE_NAME ('58d4.STEP',
    '2023-02-12T11:31:13',
    ( '' ),
    ( '' ),
    'SwSTEP 2.0',
    'SolidWorks 2019',
    '' );
FILE_SCHEMA (( 'CONFIG_CONTROL_DESIGN' ));
ENDSEC;

DATA;
#1 = PRODUCT_DEFINITION ( 'NEZNÁMÝ', '', #213, #56 ) ;
#2 = ADVANCED_FACE ( 'NONE', ( #9 ), #165, .T. ) ;
#3 = CARTESIAN_POINT ( 'NONE',  ( 6.000000000000000888, 7.347880794884120722E-16, 5.000000000000000000 ) ) ;
#4 = LOCAL_TIME ( 12, 31, 13.00000000000000000, #208 ) ;
#5 = PERSON_AND_ORGANIZATION ( #105, #77 ) ;
#6 = DIRECTION ( 'NONE',  ( 0.000000000000000000, 0.000000000000000000, 1.000000000000000000 ) ) ;
#7 = DIRECTION ( 'NONE',  ( -0.000000000000000000, -0.000000000000000000, -1.000000000000000000 ) ) ;
#8 = DIRECTION ( 'NONE',  ( -0.000000000000000000, -0.000000000000000000, -1.000000000000000000 ) ) ;
#9 = FACE_OUTER_BOUND ( 'NONE', #58, .T. ) ;
#10 = PERSON_AND_ORGANIZATION_ROLE ( 'classification_officer' ) ;
#11 = FACE_OUTER_BOUND ( 'NONE', #240, .T. ) ;
#12 = CARTESIAN_POINT ( 'NONE',  ( 0.000000000000000000, 0.000000000000000000, 200.0000000000000000 ) ) ;
#13 = DIRECTION ( 'NONE',  ( 1.000000000000000000, 0.000000000000000000, -0.000000000000000000 ) ) ;
#14 = APPLICATION_PROTOCOL_DEFINITION ( 'international standard', 'config_control_design', 1994, #136 ) ;
#15 = ORIENTED_EDGE ( 'NONE', *, *, #130, .T. ) ;
#16 = APPROVAL_ROLE ( '' ) ;
#17 = CIRCLE ( 'NONE', #70, 6.000000000000000888 ) ;
#18 = CARTESIAN_POINT ( 'NONE',  ( -6.000000000000000888, 0.000000000000000000, 0.000000000000000000 ) ) ;
#19 = CC_DESIGN_SECURITY_CLASSIFICATION ( #186, ( #213 ) ) ;
#20 = COORDINATED_UNIVERSAL_TIME_OFFSET ( 1, 0, .AHEAD. ) ;
#21 = DIRECTION ( 'NONE',  ( 1.000000000000000000, 0.000000000000000000, 0.000000000000000000 ) ) ;
#22 = DIRECTION ( 'NONE',  ( -1.000000000000000000, 0.000000000000000000, 0.000000000000000000 ) ) ;
#23 = CARTESIAN_POINT ( 'NONE',  ( -3.250000000000000444, 0.000000000000000000, 200.0000000000000000 ) ) ;
#24 = DIRECTION ( 'NONE',  ( 0.000000000000000000, 0.000000000000000000, 1.000000000000000000 ) ) ;
#25 = CARTESIAN_POINT ( 'NONE',  ( 3.250000000000000444, 3.980102097228898231E-16, 200.0000000000000000 ) ) ;
#26 = EDGE_CURVE ( 'NONE', #190, #245, #144, .T. ) ;
#27 = AXIS2_PLACEMENT_3D ( 'NONE', #148, #204, #110 ) ;
#28 = CC_DESIGN_DATE_AND_TIME_ASSIGNMENT ( #206, #115, ( #186 ) ) ;
#29 = APPROVAL_PERSON_ORGANIZATION ( #198, #162, #95 ) ;
#30 = DIRECTION ( 'NONE',  ( 1.000000000000000000, 0.000000000000000000, 0.000000000000000000 ) ) ;
#31 = ORIENTED_EDGE ( 'NONE', *, *, #55, .T. ) ;
#32 = SHAPE_DEFINITION_REPRESENTATION ( #183, #210 ) ;
#33 = DIRECTION ( 'NONE',  ( -0.000000000000000000, -0.000000000000000000, -1.000000000000000000 ) ) ;
#34 = LOCAL_TIME ( 12, 31, 13.00000000000000000, #91 ) ;
#35 = ORIENTED_EDGE ( 'NONE', *, *, #90, .T. ) ;
#36 = APPROVAL_ROLE ( '' ) ;
#37 = UNCERTAINTY_MEASURE_WITH_UNIT (LENGTH_MEASURE( 1.000000000000000082E-05 ), #157, 'distance_accuracy_value', 'NONE');
#38 = CC_DESIGN_DATE_AND_TIME_ASSIGNMENT ( #178, #124, ( #1 ) ) ;
#39 = AXIS2_PLACEMENT_3D ( 'NONE', #160, #7, #22 ) ;
#40 = FACE_OUTER_BOUND ( 'NONE', #114, .T. ) ;
#41 = DIRECTION ( 'NONE',  ( 0.000000000000000000, 0.000000000000000000, 1.000000000000000000 ) ) ;
#42 = ADVANCED_FACE ( 'NONE', ( #238 ), #67, .F. ) ;
#43 = LINE ( 'NONE', #170, #150 ) ;
#44 = DIRECTION ( 'NONE',  ( 0.000000000000000000, 0.000000000000000000, 1.000000000000000000 ) ) ;
#45 = AXIS2_PLACEMENT_3D ( 'NONE', #147, #188, #83 ) ;
#46 = CARTESIAN_POINT ( 'NONE',  ( 0.000000000000000000, 0.000000000000000000, 0.000000000000000000 ) ) ;
#47 = FACE_OUTER_BOUND ( 'NONE', #167, .T. ) ;
#48 = CIRCLE ( 'NONE', #53, 3.250000000000000444 ) ;
#49 = APPROVAL ( #197, 'NEURÈENÝ' ) ;
#50 = EDGE_CURVE ( 'NONE', #245, #190, #17, .T. ) ;
#51 = DIRECTION ( 'NONE',  ( 1.000000000000000000, 0.000000000000000000, 0.000000000000000000 ) ) ;
#52 = ORIENTED_EDGE ( 'NONE', *, *, #88, .F. ) ;
#53 = AXIS2_PLACEMENT_3D ( 'NONE', #12, #172, #253 ) ;
#54 = ORIENTED_EDGE ( 'NONE', *, *, #140, .T. ) ;
#55 = EDGE_CURVE ( 'NONE', #156, #89, #85, .T. ) ;
#56 = DESIGN_CONTEXT ( 'detailed design', #187, 'design' ) ;
#57 = ORIENTED_EDGE ( 'NONE', *, *, #211, .F. ) ;
#58 = EDGE_LOOP ( 'NONE', ( #207, #159, #69, #86 ) ) ;
#59 = DATE_AND_TIME ( #163, #146 ) ;
#60 = CARTESIAN_POINT ( 'NONE',  ( 0.000000000000000000, 0.000000000000000000, 0.000000000000000000 ) ) ;
#61 = VERTEX_POINT ( 'NONE', #25 ) ;
#62 =( NAMED_UNIT ( * ) SI_UNIT ( $, .STERADIAN. ) SOLID_ANGLE_UNIT ( ) );
#63 = CIRCLE ( 'NONE', #134, 3.250000000000000444 ) ;
#64 = AXIS2_PLACEMENT_3D ( 'NONE', #194, #193, #13 ) ;
#65 = LINE ( 'NONE', #145, #129 ) ;
#66 = DIRECTION ( 'NONE',  ( 0.000000000000000000, 0.000000000000000000, 1.000000000000000000 ) ) ;
#67 = PLANE ( 'NONE',  #27 ) ;
#68 = PERSON_AND_ORGANIZATION_ROLE ( 'design_supplier' ) ;
#69 = ORIENTED_EDGE ( 'NONE', *, *, #211, .T. ) ;
#70 = AXIS2_PLACEMENT_3D ( 'NONE', #244, #6, #30 ) ;
#71 = PERSON_AND_ORGANIZATION ( #105, #77 ) ;
#72 = VERTEX_POINT ( 'NONE', #18 ) ;
#73 = PERSON_AND_ORGANIZATION ( #105, #77 ) ;
#74 = CC_DESIGN_PERSON_AND_ORGANIZATION_ASSIGNMENT ( #176, #155, ( #1 ) ) ;
#75 = CARTESIAN_POINT ( 'NONE',  ( -3.250000000000000444, 0.000000000000000000, 200.0000000000000000 ) ) ;
#76 = CC_DESIGN_PERSON_AND_ORGANIZATION_ASSIGNMENT ( #5, #168, ( #213 ) ) ;
#77 = ORGANIZATION ( 'NEURÈENÝ', 'NEURÈENÝ', '' ) ;
#78 = LINE ( 'NONE', #201, #203 ) ;
#79 = ORIENTED_EDGE ( 'NONE', *, *, #130, .F. ) ;
#80 = CYLINDRICAL_SURFACE ( 'NONE', #39, 6.000000000000000888 ) ;
#81 = EDGE_LOOP ( 'NONE', ( #242, #101, #15, #52 ) ) ;
#82 = DIRECTION ( 'NONE',  ( 1.000000000000000000, 0.000000000000000000, 0.000000000000000000 ) ) ;
#83 = DIRECTION ( 'NONE',  ( 1.000000000000000000, 0.000000000000000000, 0.000000000000000000 ) ) ;
#84 = CARTESIAN_POINT ( 'NONE',  ( 0.000000000000000000, 0.000000000000000000, 200.0000000000000000 ) ) ;
#85 = CIRCLE ( 'NONE', #106, 3.250000000000000444 ) ;
#86 = ORIENTED_EDGE ( 'NONE', *, *, #140, .F. ) ;
#87 = APPROVAL_DATE_TIME ( #132, #229 ) ;
#88 = EDGE_CURVE ( 'NONE', #245, #72, #78, .T. ) ;
#89 = VERTEX_POINT ( 'NONE', #239 ) ;
#90 = EDGE_CURVE ( 'NONE', #72, #205, #189, .T. ) ;
#91 = COORDINATED_UNIVERSAL_TIME_OFFSET ( 1, 0, .AHEAD. ) ;
#92 = FACE_OUTER_BOUND ( 'NONE', #81, .T. ) ;
#93 = AXIS2_PLACEMENT_3D ( 'NONE', #154, #171, #174 ) ;
#94 = DIRECTION ( 'NONE',  ( -0.000000000000000000, -0.000000000000000000, -1.000000000000000000 ) ) ;
#95 = APPROVAL_ROLE ( '' ) ;
#96 = DIRECTION ( 'NONE',  ( 1.000000000000000000, 0.000000000000000000, 0.000000000000000000 ) ) ;
#97 = APPROVAL_DATE_TIME ( #59, #162 ) ;
#98 = MECHANICAL_CONTEXT ( 'NONE', #136, 'mechanical' ) ;
#99 = EDGE_LOOP ( 'NONE', ( #249, #79 ) ) ;
#100 = COORDINATED_UNIVERSAL_TIME_OFFSET ( 1, 0, .AHEAD. ) ;
#101 = ORIENTED_EDGE ( 'NONE', *, *, #123, .T. ) ;
#102 = AXIS2_PLACEMENT_3D ( 'NONE', #228, #94, #119 ) ;
#103 = PLANE ( 'NONE',  #158 ) ;
#104 = PERSON_AND_ORGANIZATION ( #105, #77 ) ;
#105 = PERSON ( 'NEURÈENÝ', 'NEURÈENÝ', 'NEURÈENÝ', ('NEURÈENÝ'), ('NEURÈENÝ'), ('NEURÈENÝ') ) ;
#106 = AXIS2_PLACEMENT_3D ( 'NONE', #202, #199, #128 ) ;
#107 = LINE ( 'NONE', #23, #173 ) ;
#108 = ORIENTED_EDGE ( 'NONE', *, *, #55, .F. ) ;
#109 = LOCAL_TIME ( 12, 31, 13.00000000000000000, #20 ) ;
#110 = DIRECTION ( 'NONE',  ( 1.000000000000000000, 0.000000000000000000, -0.000000000000000000 ) ) ;
#111 = DIRECTION ( 'NONE',  ( -0.000000000000000000, -0.000000000000000000, -1.000000000000000000 ) ) ;
#112 = ORIENTED_EDGE ( 'NONE', *, *, #200, .F. ) ;
#113 = DIRECTION ( 'NONE',  ( -1.000000000000000000, 0.000000000000000000, 0.000000000000000000 ) ) ;
#114 = EDGE_LOOP ( 'NONE', ( #217, #234 ) ) ;
#115 = DATE_TIME_ROLE ( 'classification_date' ) ;
#116 = CC_DESIGN_APPROVAL ( #229, ( #186 ) ) ;
#117 = CC_DESIGN_PERSON_AND_ORGANIZATION_ASSIGNMENT ( #73, #10, ( #186 ) ) ;
#118 = ADVANCED_FACE ( 'NONE', ( #47 ), #80, .T. ) ;
#119 = DIRECTION ( 'NONE',  ( -1.000000000000000000, 0.000000000000000000, 0.000000000000000000 ) ) ;
#120 = PLANE ( 'NONE',  #64 ) ;
#121 = CC_DESIGN_APPROVAL ( #49, ( #213 ) ) ;
#122 = DIRECTION ( 'NONE',  ( -0.000000000000000000, -0.000000000000000000, -1.000000000000000000 ) ) ;
#123 = EDGE_CURVE ( 'NONE', #190, #205, #65, .T. ) ;
#124 = DATE_TIME_ROLE ( 'creation_date' ) ;
#125 = DIRECTION ( 'NONE',  ( 1.000000000000000000, 0.000000000000000000, -0.000000000000000000 ) ) ;
#126 = DIRECTION ( 'NONE',  ( 0.000000000000000000, 0.000000000000000000, 1.000000000000000000 ) ) ;
#127 =( NAMED_UNIT ( * ) PLANE_ANGLE_UNIT ( ) SI_UNIT ( $, .RADIAN. ) );
#128 = DIRECTION ( 'NONE',  ( 1.000000000000000000, 0.000000000000000000, 0.000000000000000000 ) ) ;
#129 = VECTOR ( 'NONE', #111, 1000.000000000000000 ) ;
#130 = EDGE_CURVE ( 'NONE', #205, #72, #153, .T. ) ;
#131 = ORIENTED_EDGE ( 'NONE', *, *, #247, .T. ) ;
#132 = DATE_AND_TIME ( #169, #4 ) ;
#133 = ORIENTED_EDGE ( 'NONE', *, *, #184, .F. ) ;
#134 = AXIS2_PLACEMENT_3D ( 'NONE', #224, #195, #96 ) ;
#135 = APPROVAL_PERSON_ORGANIZATION ( #223, #229, #36 ) ;
#136 = APPLICATION_CONTEXT ( 'configuration controlled 3d designs of mechanical parts and assemblies' ) ;
#137 = FACE_BOUND ( 'NONE', #220, .T. ) ;
#138 = CARTESIAN_POINT ( 'NONE',  ( -6.000000000000000888, 0.000000000000000000, 5.000000000000000000 ) ) ;
#139 = APPROVAL_STATUS ( 'not_yet_approved' ) ;
#140 = EDGE_CURVE ( 'NONE', #209, #156, #107, .T. ) ;
#141 = ORIENTED_EDGE ( 'NONE', *, *, #50, .F. ) ;
#142 = APPLICATION_PROTOCOL_DEFINITION ( 'international standard', 'config_control_design', 1994, #187 ) ;
#143 = MANIFOLD_SOLID_BREP ( 'Pøidat vysunutím3', #185 ) ;
#144 = CIRCLE ( 'NONE', #215, 6.000000000000000888 ) ;
#145 = CARTESIAN_POINT ( 'NONE',  ( 6.000000000000000888, 7.347880794884120722E-16, 5.000000000000000000 ) ) ;
#146 = LOCAL_TIME ( 12, 31, 13.00000000000000000, #196 ) ;
#147 = CARTESIAN_POINT ( 'NONE',  ( 0.000000000000000000, 0.000000000000000000, 0.000000000000000000 ) ) ;
#148 = CARTESIAN_POINT ( 'NONE',  ( 0.000000000000000000, 0.000000000000000000, 0.000000000000000000 ) ) ;
#149 = CC_DESIGN_PERSON_AND_ORGANIZATION_ASSIGNMENT ( #71, #68, ( #213 ) ) ;
#150 = VECTOR ( 'NONE', #122, 1000.000000000000000 ) ;
#151 = CALENDAR_DATE ( 2023, 12, 2 ) ;
#152 = CARTESIAN_POINT ( 'NONE',  ( 0.000000000000000000, 0.000000000000000000, 5.000000000000000000 ) ) ;
#153 = CIRCLE ( 'NONE', #45, 6.000000000000000888 ) ;
#154 = CARTESIAN_POINT ( 'NONE',  ( 0.000000000000000000, 0.000000000000000000, 200.0000000000000000 ) ) ;
#155 = PERSON_AND_ORGANIZATION_ROLE ( 'creator' ) ;
#156 = VERTEX_POINT ( 'NONE', #250 ) ;
#157 =( LENGTH_UNIT ( ) NAMED_UNIT ( * ) SI_UNIT ( .MILLI., .METRE. ) );
#158 = AXIS2_PLACEMENT_3D ( 'NONE', #216, #24, #125 ) ;
#159 = ORIENTED_EDGE ( 'NONE', *, *, #200, .T. ) ;
#160 = CARTESIAN_POINT ( 'NONE',  ( 0.000000000000000000, 0.000000000000000000, 5.000000000000000000 ) ) ;
#161 = AXIS2_PLACEMENT_3D ( 'NONE', #46, #44, #21 ) ;
#162 = APPROVAL ( #139, 'NEURÈENÝ' ) ;
#163 = CALENDAR_DATE ( 2023, 12, 2 ) ;
#164 = SECURITY_CLASSIFICATION_LEVEL ( 'unclassified' ) ;
#165 = CYLINDRICAL_SURFACE ( 'NONE', #254, 3.250000000000000444 ) ;
#166 = ORIENTED_EDGE ( 'NONE', *, *, #184, .T. ) ;
#167 = EDGE_LOOP ( 'NONE', ( #191, #141, #177, #35 ) ) ;
#168 = PERSON_AND_ORGANIZATION_ROLE ( 'creator' ) ;
#169 = CALENDAR_DATE ( 2023, 12, 2 ) ;
#170 = CARTESIAN_POINT ( 'NONE',  ( 3.250000000000000444, 3.980102097228898231E-16, 200.0000000000000000 ) ) ;
#171 = DIRECTION ( 'NONE',  ( -0.000000000000000000, -0.000000000000000000, -1.000000000000000000 ) ) ;
#172 = DIRECTION ( 'NONE',  ( 0.000000000000000000, 0.000000000000000000, 1.000000000000000000 ) ) ;
#173 = VECTOR ( 'NONE', #8, 1000.000000000000000 ) ;
#174 = DIRECTION ( 'NONE',  ( -1.000000000000000000, 0.000000000000000000, 0.000000000000000000 ) ) ;
#175 = APPROVAL_PERSON_ORGANIZATION ( #104, #49, #16 ) ;
#176 = PERSON_AND_ORGANIZATION ( #105, #77 ) ;
#177 = ORIENTED_EDGE ( 'NONE', *, *, #88, .T. ) ;
#178 = DATE_AND_TIME ( #230, #109 ) ;
#179 = PERSON_AND_ORGANIZATION ( #105, #77 ) ;
#180 = CALENDAR_DATE ( 2023, 12, 2 ) ;
#181 = DATE_AND_TIME ( #180, #235 ) ;
#182 = DIRECTION ( 'NONE',  ( -0.000000000000000000, -0.000000000000000000, -1.000000000000000000 ) ) ;
#183 = PRODUCT_DEFINITION_SHAPE ( 'NONE', 'NONE',  #1 ) ;
#184 = EDGE_CURVE ( 'NONE', #209, #61, #63, .T. ) ;
#185 = CLOSED_SHELL ( 'NONE', ( #2, #192, #118, #222, #42, #227, #248 ) ) ;
#186 = SECURITY_CLASSIFICATION ( '', '', #164 ) ;
#187 = APPLICATION_CONTEXT ( 'configuration controlled 3d designs of mechanical parts and assemblies' ) ;
#188 = DIRECTION ( 'NONE',  ( 0.000000000000000000, 0.000000000000000000, 1.000000000000000000 ) ) ;
#189 = CIRCLE ( 'NONE', #231, 6.000000000000000888 ) ;
#190 = VERTEX_POINT ( 'NONE', #3 ) ;
#191 = ORIENTED_EDGE ( 'NONE', *, *, #123, .F. ) ;
#192 = ADVANCED_FACE ( 'NONE', ( #92 ), #214, .T. ) ;
#193 = DIRECTION ( 'NONE',  ( 0.000000000000000000, 0.000000000000000000, 1.000000000000000000 ) ) ;
#194 = CARTESIAN_POINT ( 'NONE',  ( 0.000000000000000000, 0.000000000000000000, 5.000000000000000000 ) ) ;
#195 = DIRECTION ( 'NONE',  ( 0.000000000000000000, 0.000000000000000000, 1.000000000000000000 ) ) ;
#196 = COORDINATED_UNIVERSAL_TIME_OFFSET ( 1, 0, .AHEAD. ) ;
#197 = APPROVAL_STATUS ( 'not_yet_approved' ) ;
#198 = PERSON_AND_ORGANIZATION ( #105, #77 ) ;
#199 = DIRECTION ( 'NONE',  ( 0.000000000000000000, 0.000000000000000000, 1.000000000000000000 ) ) ;
#200 = EDGE_CURVE ( 'NONE', #61, #89, #43, .T. ) ;
#201 = CARTESIAN_POINT ( 'NONE',  ( -6.000000000000000888, 0.000000000000000000, 5.000000000000000000 ) ) ;
#202 = CARTESIAN_POINT ( 'NONE',  ( 0.000000000000000000, 0.000000000000000000, 5.000000000000000000 ) ) ;
#203 = VECTOR ( 'NONE', #182, 1000.000000000000000 ) ;
#204 = DIRECTION ( 'NONE',  ( 0.000000000000000000, 0.000000000000000000, 1.000000000000000000 ) ) ;
#205 = VERTEX_POINT ( 'NONE', #252 ) ;
#206 = DATE_AND_TIME ( #151, #34 ) ;
#207 = ORIENTED_EDGE ( 'NONE', *, *, #247, .F. ) ;
#208 = COORDINATED_UNIVERSAL_TIME_OFFSET ( 1, 0, .AHEAD. ) ;
#209 = VERTEX_POINT ( 'NONE', #75 ) ;
#210 = ADVANCED_BREP_SHAPE_REPRESENTATION ( '58d4', ( #143, #161 ), #246 ) ;
#211 = EDGE_CURVE ( 'NONE', #89, #156, #251, .T. ) ;
#212 = PRODUCT ( '58d4', '58d4', '', ( #98 ) ) ;
#213 = PRODUCT_DEFINITION_FORMATION_WITH_SPECIFIED_SOURCE ( 'LIBOVOLNÝ', '', #212, .NOT_KNOWN. ) ;
#214 = CYLINDRICAL_SURFACE ( 'NONE', #102, 6.000000000000000888 ) ;
#215 = AXIS2_PLACEMENT_3D ( 'NONE', #237, #66, #82 ) ;
#216 = CARTESIAN_POINT ( 'NONE',  ( 0.000000000000000000, 0.000000000000000000, 200.0000000000000000 ) ) ;
#217 = ORIENTED_EDGE ( 'NONE', *, *, #50, .T. ) ;
#218 = APPROVAL_STATUS ( 'not_yet_approved' ) ;
#219 = CC_DESIGN_APPROVAL ( #162, ( #1 ) ) ;
#220 = EDGE_LOOP ( 'NONE', ( #108, #57 ) ) ;
#221 = CC_DESIGN_PERSON_AND_ORGANIZATION_ASSIGNMENT ( #179, #233, ( #212 ) ) ;
#222 = ADVANCED_FACE ( 'NONE', ( #137, #40 ), #120, .T. ) ;
#223 = PERSON_AND_ORGANIZATION ( #105, #77 ) ;
#224 = CARTESIAN_POINT ( 'NONE',  ( 0.000000000000000000, 0.000000000000000000, 200.0000000000000000 ) ) ;
#225 = DIRECTION ( 'NONE',  ( 1.000000000000000000, 0.000000000000000000, 0.000000000000000000 ) ) ;
#226 = CYLINDRICAL_SURFACE ( 'NONE', #93, 3.250000000000000444 ) ;
#227 = ADVANCED_FACE ( 'NONE', ( #11 ), #226, .T. ) ;
#228 = CARTESIAN_POINT ( 'NONE',  ( 0.000000000000000000, 0.000000000000000000, 5.000000000000000000 ) ) ;
#229 = APPROVAL ( #218, 'NEURÈENÝ' ) ;
#230 = CALENDAR_DATE ( 2023, 12, 2 ) ;
#231 = AXIS2_PLACEMENT_3D ( 'NONE', #60, #126, #51 ) ;
#232 = EDGE_LOOP ( 'NONE', ( #166, #131 ) ) ;
#233 = PERSON_AND_ORGANIZATION_ROLE ( 'design_owner' ) ;
#234 = ORIENTED_EDGE ( 'NONE', *, *, #26, .T. ) ;
#235 = LOCAL_TIME ( 12, 31, 13.00000000000000000, #100 ) ;
#236 = AXIS2_PLACEMENT_3D ( 'NONE', #152, #41, #225 ) ;
#237 = CARTESIAN_POINT ( 'NONE',  ( 0.000000000000000000, 0.000000000000000000, 5.000000000000000000 ) ) ;
#238 = FACE_OUTER_BOUND ( 'NONE', #99, .T. ) ;
#239 = CARTESIAN_POINT ( 'NONE',  ( 3.250000000000000444, 3.980102097228898231E-16, 5.000000000000000000 ) ) ;
#240 = EDGE_LOOP ( 'NONE', ( #112, #133, #54, #31 ) ) ;
#241 = APPROVAL_DATE_TIME ( #181, #49 ) ;
#242 = ORIENTED_EDGE ( 'NONE', *, *, #26, .F. ) ;
#243 = PRODUCT_RELATED_PRODUCT_CATEGORY ( 'detail', '', ( #212 ) ) ;
#244 = CARTESIAN_POINT ( 'NONE',  ( 0.000000000000000000, 0.000000000000000000, 5.000000000000000000 ) ) ;
#245 = VERTEX_POINT ( 'NONE', #138 ) ;
#246 =( GEOMETRIC_REPRESENTATION_CONTEXT ( 3 ) GLOBAL_UNCERTAINTY_ASSIGNED_CONTEXT ( ( #37 ) ) GLOBAL_UNIT_ASSIGNED_CONTEXT ( ( #157, #127, #62 ) ) REPRESENTATION_CONTEXT ( 'NONE', 'WORKASPACE' ) );
#247 = EDGE_CURVE ( 'NONE', #61, #209, #48, .T. ) ;
#248 = ADVANCED_FACE ( 'NONE', ( #255 ), #103, .T. ) ;
#249 = ORIENTED_EDGE ( 'NONE', *, *, #90, .F. ) ;
#250 = CARTESIAN_POINT ( 'NONE',  ( -3.250000000000000444, 0.000000000000000000, 5.000000000000000000 ) ) ;
#251 = CIRCLE ( 'NONE', #236, 3.250000000000000444 ) ;
#252 = CARTESIAN_POINT ( 'NONE',  ( 6.000000000000000888, 7.347880794884120722E-16, 0.000000000000000000 ) ) ;
#253 = DIRECTION ( 'NONE',  ( 1.000000000000000000, 0.000000000000000000, 0.000000000000000000 ) ) ;
#254 = AXIS2_PLACEMENT_3D ( 'NONE', #84, #33, #113 ) ;
#255 = FACE_OUTER_BOUND ( 'NONE', #232, .T. ) ;
ENDSEC;
END-ISO-10303-21;
