ISO-10303-21;
HEADER;
FILE_DESCRIPTION (( 'STEP AP203' ),
    '1' );
FILE_NAME ('0bd9.STEP',
    '2023-02-12T11:43:27',
    ( '' ),
    ( '' ),
    'SwSTEP 2.0',
    'SolidWorks 2019',
    '' );
FILE_SCHEMA (( 'CONFIG_CONTROL_DESIGN' ));
ENDSEC;

DATA;
#1 = EDGE_CURVE ( 'NONE', #213, #64, #97, .T. ) ;
#2 = CALENDAR_DATE ( 2023, 12, 2 ) ;
#3 = ORIENTED_EDGE ( 'NONE', *, *, #1, .T. ) ;
#4 = CALENDAR_DATE ( 2023, 12, 2 ) ;
#5 = COORDINATED_UNIVERSAL_TIME_OFFSET ( 1, 0, .AHEAD. ) ;
#6 = DATE_TIME_ROLE ( 'classification_date' ) ;
#7 = ORIENTED_EDGE ( 'NONE', *, *, #195, .F. ) ;
#8 = ADVANCED_FACE ( 'NONE', ( #45 ), #111, .T. ) ;
#9 = DIRECTION ( 'NONE',  ( 1.000000000000000000, 0.000000000000000000, 0.000000000000000000 ) ) ;
#10 = FACE_OUTER_BOUND ( 'NONE', #158, .T. ) ;
#11 = PRODUCT_DEFINITION_FORMATION_WITH_SPECIFIED_SOURCE ( 'LIBOVOLNÝ', '', #41, .NOT_KNOWN. ) ;
#12 = CARTESIAN_POINT ( 'NONE',  ( -2.600000000000000089, 0.000000000000000000, 315.0000000000000000 ) ) ;
#13 = CIRCLE ( 'NONE', #113, 2.600000000000000089 ) ;
#14 = CYLINDRICAL_SURFACE ( 'NONE', #55, 5.000000000000000000 ) ;
#15 = CC_DESIGN_DATE_AND_TIME_ASSIGNMENT ( #69, #68, ( #102 ) ) ;
#16 = CARTESIAN_POINT ( 'NONE',  ( -5.000000000000000000, 0.000000000000000000, 0.000000000000000000 ) ) ;
#17 =( LENGTH_UNIT ( ) NAMED_UNIT ( * ) SI_UNIT ( .MILLI., .METRE. ) );
#18 = VERTEX_POINT ( 'NONE', #51 ) ;
#19 = CARTESIAN_POINT ( 'NONE',  ( 0.000000000000000000, 0.000000000000000000, 0.000000000000000000 ) ) ;
#20 = EDGE_CURVE ( 'NONE', #235, #137, #42, .T. ) ;
#21 = CARTESIAN_POINT ( 'NONE',  ( 0.000000000000000000, 0.000000000000000000, 315.0000000000000000 ) ) ;
#22 = AXIS2_PLACEMENT_3D ( 'NONE', #245, #106, #39 ) ;
#23 = VERTEX_POINT ( 'NONE', #186 ) ;
#24 = PERSON_AND_ORGANIZATION ( #38, #108 ) ;
#25 = CC_DESIGN_APPROVAL ( #231, ( #102 ) ) ;
#26 = PERSON_AND_ORGANIZATION ( #38, #108 ) ;
#27 = PERSON_AND_ORGANIZATION_ROLE ( 'classification_officer' ) ;
#28 = AXIS2_PLACEMENT_3D ( 'NONE', #81, #150, #133 ) ;
#29 = AXIS2_PLACEMENT_3D ( 'NONE', #19, #255, #151 ) ;
#30 = CC_DESIGN_APPROVAL ( #208, ( #178 ) ) ;
#31 = APPROVAL_ROLE ( '' ) ;
#32 = DIRECTION ( 'NONE',  ( 0.000000000000000000, 0.000000000000000000, 1.000000000000000000 ) ) ;
#33 = CARTESIAN_POINT ( 'NONE',  ( 0.000000000000000000, 0.000000000000000000, 3.000000000000000000 ) ) ;
#34 = AXIS2_PLACEMENT_3D ( 'NONE', #92, #226, #87 ) ;
#35 = EDGE_CURVE ( 'NONE', #18, #23, #116, .T. ) ;
#36 = CARTESIAN_POINT ( 'NONE',  ( -2.600000000000000089, 0.000000000000000000, 315.0000000000000000 ) ) ;
#37 = PLANE ( 'NONE',  #22 ) ;
#38 = PERSON ( 'NEURÈENÝ', 'NEURÈENÝ', 'NEURÈENÝ', ('NEURÈENÝ'), ('NEURÈENÝ'), ('NEURÈENÝ') ) ;
#39 = DIRECTION ( 'NONE',  ( 1.000000000000000000, 0.000000000000000000, -0.000000000000000000 ) ) ;
#40 = ADVANCED_FACE ( 'NONE', ( #76 ), #143, .T. ) ;
#41 = PRODUCT ( '0bd9', '0bd9', '', ( #44 ) ) ;
#42 = CIRCLE ( 'NONE', #94, 2.600000000000000089 ) ;
#43 =( NAMED_UNIT ( * ) SI_UNIT ( $, .STERADIAN. ) SOLID_ANGLE_UNIT ( ) );
#44 = MECHANICAL_CONTEXT ( 'NONE', #222, 'mechanical' ) ;
#45 = FACE_OUTER_BOUND ( 'NONE', #172, .T. ) ;
#46 = CIRCLE ( 'NONE', #205, 5.000000000000000000 ) ;
#47 = COORDINATED_UNIVERSAL_TIME_OFFSET ( 1, 0, .AHEAD. ) ;
#48 = DATE_AND_TIME ( #219, #218 ) ;
#49 = CC_DESIGN_APPROVAL ( #180, ( #11 ) ) ;
#50 = VECTOR ( 'NONE', #90, 1000.000000000000000 ) ;
#51 = CARTESIAN_POINT ( 'NONE',  ( -5.000000000000000000, 0.000000000000000000, 3.000000000000000000 ) ) ;
#52 = ORIENTED_EDGE ( 'NONE', *, *, #155, .F. ) ;
#53 = DIRECTION ( 'NONE',  ( 1.000000000000000000, 0.000000000000000000, 0.000000000000000000 ) ) ;
#54 = DIRECTION ( 'NONE',  ( -0.000000000000000000, -0.000000000000000000, -1.000000000000000000 ) ) ;
#55 = AXIS2_PLACEMENT_3D ( 'NONE', #223, #160, #166 ) ;
#56 = EDGE_CURVE ( 'NONE', #95, #211, #13, .T. ) ;
#57 = CARTESIAN_POINT ( 'NONE',  ( 0.000000000000000000, 0.000000000000000000, 315.0000000000000000 ) ) ;
#58 = DIRECTION ( 'NONE',  ( 0.000000000000000000, 0.000000000000000000, 1.000000000000000000 ) ) ;
#59 = CARTESIAN_POINT ( 'NONE',  ( 0.000000000000000000, 0.000000000000000000, 3.000000000000000000 ) ) ;
#60 = ADVANCED_BREP_SHAPE_REPRESENTATION ( '0bd9', ( #80, #29 ), #122 ) ;
#61 = CARTESIAN_POINT ( 'NONE',  ( 0.000000000000000000, 0.000000000000000000, 3.000000000000000000 ) ) ;
#62 = ADVANCED_FACE ( 'NONE', ( #182 ), #244, .T. ) ;
#63 = ADVANCED_FACE ( 'NONE', ( #121 ), #74, .T. ) ;
#64 = VERTEX_POINT ( 'NONE', #16 ) ;
#65 = ORIENTED_EDGE ( 'NONE', *, *, #207, .F. ) ;
#66 = ORIENTED_EDGE ( 'NONE', *, *, #246, .F. ) ;
#67 = AXIS2_PLACEMENT_3D ( 'NONE', #141, #139, #189 ) ;
#68 = DATE_TIME_ROLE ( 'creation_date' ) ;
#69 = DATE_AND_TIME ( #4, #230 ) ;
#70 = EDGE_LOOP ( 'NONE', ( #66, #86, #3, #65 ) ) ;
#71 = EDGE_CURVE ( 'NONE', #211, #95, #162, .T. ) ;
#72 = DIRECTION ( 'NONE',  ( 1.000000000000000000, 0.000000000000000000, -0.000000000000000000 ) ) ;
#73 = DIRECTION ( 'NONE',  ( 0.000000000000000000, 0.000000000000000000, 1.000000000000000000 ) ) ;
#74 = CYLINDRICAL_SURFACE ( 'NONE', #67, 2.600000000000000089 ) ;
#75 = VECTOR ( 'NONE', #104, 1000.000000000000000 ) ;
#76 = FACE_OUTER_BOUND ( 'NONE', #112, .T. ) ;
#77 = DIRECTION ( 'NONE',  ( 1.000000000000000000, 0.000000000000000000, 0.000000000000000000 ) ) ;
#78 = APPROVAL_PERSON_ORGANIZATION ( #83, #180, #31 ) ;
#79 = PRODUCT_RELATED_PRODUCT_CATEGORY ( 'detail', '', ( #41 ) ) ;
#80 = MANIFOLD_SOLID_BREP ( 'Pøidat vysunutím3', #192 ) ;
#81 = CARTESIAN_POINT ( 'NONE',  ( 0.000000000000000000, 0.000000000000000000, 0.000000000000000000 ) ) ;
#82 = EDGE_LOOP ( 'NONE', ( #159, #153 ) ) ;
#83 = PERSON_AND_ORGANIZATION ( #38, #108 ) ;
#84 = APPROVAL_STATUS ( 'not_yet_approved' ) ;
#85 = ORIENTED_EDGE ( 'NONE', *, *, #71, .F. ) ;
#86 = ORIENTED_EDGE ( 'NONE', *, *, #237, .T. ) ;
#87 = DIRECTION ( 'NONE',  ( 1.000000000000000000, 0.000000000000000000, 0.000000000000000000 ) ) ;
#88 = CARTESIAN_POINT ( 'NONE',  ( 0.000000000000000000, 0.000000000000000000, 0.000000000000000000 ) ) ;
#89 = DIRECTION ( 'NONE',  ( -0.000000000000000000, -0.000000000000000000, -1.000000000000000000 ) ) ;
#90 = DIRECTION ( 'NONE',  ( -0.000000000000000000, -0.000000000000000000, -1.000000000000000000 ) ) ;
#91 = EDGE_CURVE ( 'NONE', #211, #137, #125, .T. ) ;
#92 = CARTESIAN_POINT ( 'NONE',  ( 0.000000000000000000, 0.000000000000000000, 315.0000000000000000 ) ) ;
#93 = AXIS2_PLACEMENT_3D ( 'NONE', #59, #128, #206 ) ;
#94 = AXIS2_PLACEMENT_3D ( 'NONE', #118, #32, #53 ) ;
#95 = VERTEX_POINT ( 'NONE', #163 ) ;
#96 = ORIENTED_EDGE ( 'NONE', *, *, #237, .F. ) ;
#97 = CIRCLE ( 'NONE', #28, 5.000000000000000000 ) ;
#98 = ORIENTED_EDGE ( 'NONE', *, *, #35, .F. ) ;
#99 = APPROVAL_STATUS ( 'not_yet_approved' ) ;
#100 = COORDINATED_UNIVERSAL_TIME_OFFSET ( 1, 0, .AHEAD. ) ;
#101 = PERSON_AND_ORGANIZATION_ROLE ( 'design_owner' ) ;
#102 = PRODUCT_DEFINITION ( 'NEZNÁMÝ', '', #11, #165 ) ;
#103 = ORIENTED_EDGE ( 'NONE', *, *, #91, .F. ) ;
#104 = DIRECTION ( 'NONE',  ( -0.000000000000000000, -0.000000000000000000, -1.000000000000000000 ) ) ;
#105 = CARTESIAN_POINT ( 'NONE',  ( 5.000000000000000000, 6.123233995736766282E-16, 0.000000000000000000 ) ) ;
#106 = DIRECTION ( 'NONE',  ( 0.000000000000000000, 0.000000000000000000, 1.000000000000000000 ) ) ;
#107 = DIRECTION ( 'NONE',  ( -1.000000000000000000, 0.000000000000000000, 0.000000000000000000 ) ) ;
#108 = ORGANIZATION ( 'NEURÈENÝ', 'NEURÈENÝ', '' ) ;
#109 = DIRECTION ( 'NONE',  ( 1.000000000000000000, 0.000000000000000000, 0.000000000000000000 ) ) ;
#110 = ORIENTED_EDGE ( 'NONE', *, *, #56, .T. ) ;
#111 = CYLINDRICAL_SURFACE ( 'NONE', #241, 2.600000000000000089 ) ;
#112 = EDGE_LOOP ( 'NONE', ( #96, #98, #177, #209 ) ) ;
#113 = AXIS2_PLACEMENT_3D ( 'NONE', #57, #227, #161 ) ;
#114 = DATE_AND_TIME ( #197, #148 ) ;
#115 = PERSON_AND_ORGANIZATION_ROLE ( 'creator' ) ;
#116 = CIRCLE ( 'NONE', #123, 5.000000000000000000 ) ;
#117 = CC_DESIGN_PERSON_AND_ORGANIZATION_ASSIGNMENT ( #24, #115, ( #102 ) ) ;
#118 = CARTESIAN_POINT ( 'NONE',  ( 0.000000000000000000, 0.000000000000000000, 3.000000000000000000 ) ) ;
#119 = DATE_AND_TIME ( #2, #193 ) ;
#120 = ORIENTED_EDGE ( 'NONE', *, *, #91, .T. ) ;
#121 = FACE_OUTER_BOUND ( 'NONE', #253, .T. ) ;
#122 =( GEOMETRIC_REPRESENTATION_CONTEXT ( 3 ) GLOBAL_UNCERTAINTY_ASSIGNED_CONTEXT ( ( #239 ) ) GLOBAL_UNIT_ASSIGNED_CONTEXT ( ( #17, #251, #43 ) ) REPRESENTATION_CONTEXT ( 'NONE', 'WORKASPACE' ) );
#123 = AXIS2_PLACEMENT_3D ( 'NONE', #144, #127, #9 ) ;
#124 = DIRECTION ( 'NONE',  ( 1.000000000000000000, 0.000000000000000000, -0.000000000000000000 ) ) ;
#125 = LINE ( 'NONE', #12, #50 ) ;
#126 = ADVANCED_FACE ( 'NONE', ( #10 ), #167, .F. ) ;
#127 = DIRECTION ( 'NONE',  ( 0.000000000000000000, 0.000000000000000000, 1.000000000000000000 ) ) ;
#128 = DIRECTION ( 'NONE',  ( 0.000000000000000000, 0.000000000000000000, 1.000000000000000000 ) ) ;
#129 = DIRECTION ( 'NONE',  ( 0.000000000000000000, 0.000000000000000000, 1.000000000000000000 ) ) ;
#130 = ORIENTED_EDGE ( 'NONE', *, *, #20, .F. ) ;
#131 = EDGE_LOOP ( 'NONE', ( #7, #130 ) ) ;
#132 = CC_DESIGN_SECURITY_CLASSIFICATION ( #178, ( #11 ) ) ;
#133 = DIRECTION ( 'NONE',  ( 1.000000000000000000, 0.000000000000000000, 0.000000000000000000 ) ) ;
#134 = APPROVAL_DATE_TIME ( #119, #231 ) ;
#135 = PERSON_AND_ORGANIZATION ( #38, #108 ) ;
#136 = PERSON_AND_ORGANIZATION_ROLE ( 'design_supplier' ) ;
#137 = VERTEX_POINT ( 'NONE', #138 ) ;
#138 = CARTESIAN_POINT ( 'NONE',  ( -2.600000000000000089, 0.000000000000000000, 3.000000000000000000 ) ) ;
#139 = DIRECTION ( 'NONE',  ( -0.000000000000000000, -0.000000000000000000, -1.000000000000000000 ) ) ;
#140 = ADVANCED_FACE ( 'NONE', ( #203, #204 ), #37, .T. ) ;
#141 = CARTESIAN_POINT ( 'NONE',  ( 0.000000000000000000, 0.000000000000000000, 315.0000000000000000 ) ) ;
#142 = ADVANCED_FACE ( 'NONE', ( #188 ), #14, .T. ) ;
#143 = CYLINDRICAL_SURFACE ( 'NONE', #249, 5.000000000000000000 ) ;
#144 = CARTESIAN_POINT ( 'NONE',  ( 0.000000000000000000, 0.000000000000000000, 3.000000000000000000 ) ) ;
#145 = CIRCLE ( 'NONE', #225, 5.000000000000000000 ) ;
#146 = LINE ( 'NONE', #169, #254 ) ;
#147 = EDGE_CURVE ( 'NONE', #64, #213, #145, .T. ) ;
#148 = LOCAL_TIME ( 12, 43, 27.00000000000000000, #47 ) ;
#149 = AXIS2_PLACEMENT_3D ( 'NONE', #243, #201, #124 ) ;
#150 = DIRECTION ( 'NONE',  ( 0.000000000000000000, 0.000000000000000000, 1.000000000000000000 ) ) ;
#151 = DIRECTION ( 'NONE',  ( 1.000000000000000000, 0.000000000000000000, 0.000000000000000000 ) ) ;
#152 = APPROVAL_STATUS ( 'not_yet_approved' ) ;
#153 = ORIENTED_EDGE ( 'NONE', *, *, #246, .T. ) ;
#154 = DATE_AND_TIME ( #175, #248 ) ;
#155 = EDGE_CURVE ( 'NONE', #95, #235, #199, .T. ) ;
#156 = APPROVAL_DATE_TIME ( #114, #180 ) ;
#157 = COORDINATED_UNIVERSAL_TIME_OFFSET ( 1, 0, .AHEAD. ) ;
#158 = EDGE_LOOP ( 'NONE', ( #170, #198 ) ) ;
#159 = ORIENTED_EDGE ( 'NONE', *, *, #35, .T. ) ;
#160 = DIRECTION ( 'NONE',  ( -0.000000000000000000, -0.000000000000000000, -1.000000000000000000 ) ) ;
#161 = DIRECTION ( 'NONE',  ( 1.000000000000000000, 0.000000000000000000, 0.000000000000000000 ) ) ;
#162 = CIRCLE ( 'NONE', #34, 2.600000000000000089 ) ;
#163 = CARTESIAN_POINT ( 'NONE',  ( 2.600000000000000089, 3.184081677783118191E-16, 315.0000000000000000 ) ) ;
#164 = CC_DESIGN_DATE_AND_TIME_ASSIGNMENT ( #154, #6, ( #178 ) ) ;
#165 = DESIGN_CONTEXT ( 'detailed design', #233, 'design' ) ;
#166 = DIRECTION ( 'NONE',  ( -1.000000000000000000, 0.000000000000000000, 0.000000000000000000 ) ) ;
#167 = PLANE ( 'NONE',  #187 ) ;
#168 = CC_DESIGN_PERSON_AND_ORGANIZATION_ASSIGNMENT ( #217, #27, ( #178 ) ) ;
#169 = CARTESIAN_POINT ( 'NONE',  ( 5.000000000000000000, 6.123233995736766282E-16, 3.000000000000000000 ) ) ;
#170 = ORIENTED_EDGE ( 'NONE', *, *, #147, .F. ) ;
#171 = DIRECTION ( 'NONE',  ( -0.000000000000000000, -0.000000000000000000, -1.000000000000000000 ) ) ;
#172 = EDGE_LOOP ( 'NONE', ( #52, #85, #120, #242 ) ) ;
#173 = SECURITY_CLASSIFICATION_LEVEL ( 'unclassified' ) ;
#174 = PERSON_AND_ORGANIZATION ( #38, #108 ) ;
#175 = CALENDAR_DATE ( 2023, 12, 2 ) ;
#176 = PERSON_AND_ORGANIZATION ( #38, #108 ) ;
#177 = ORIENTED_EDGE ( 'NONE', *, *, #207, .T. ) ;
#178 = SECURITY_CLASSIFICATION ( '', '', #173 ) ;
#179 = ORIENTED_EDGE ( 'NONE', *, *, #155, .T. ) ;
#180 = APPROVAL ( #152, 'NEURÈENÝ' ) ;
#181 = SHAPE_DEFINITION_REPRESENTATION ( #250, #60 ) ;
#182 = FACE_OUTER_BOUND ( 'NONE', #196, .T. ) ;
#183 = LINE ( 'NONE', #224, #238 ) ;
#184 = APPROVAL_PERSON_ORGANIZATION ( #174, #231, #194 ) ;
#185 = CC_DESIGN_PERSON_AND_ORGANIZATION_ASSIGNMENT ( #135, #234, ( #11 ) ) ;
#186 = CARTESIAN_POINT ( 'NONE',  ( 5.000000000000000000, 6.123233995736766282E-16, 3.000000000000000000 ) ) ;
#187 = AXIS2_PLACEMENT_3D ( 'NONE', #88, #58, #72 ) ;
#188 = FACE_OUTER_BOUND ( 'NONE', #70, .T. ) ;
#189 = DIRECTION ( 'NONE',  ( -1.000000000000000000, 0.000000000000000000, 0.000000000000000000 ) ) ;
#190 = CC_DESIGN_PERSON_AND_ORGANIZATION_ASSIGNMENT ( #26, #101, ( #41 ) ) ;
#191 = DIRECTION ( 'NONE',  ( -0.000000000000000000, -0.000000000000000000, -1.000000000000000000 ) ) ;
#192 = CLOSED_SHELL ( 'NONE', ( #63, #142, #40, #140, #126, #8, #62 ) ) ;
#193 = LOCAL_TIME ( 12, 43, 27.00000000000000000, #157 ) ;
#194 = APPROVAL_ROLE ( '' ) ;
#195 = EDGE_CURVE ( 'NONE', #137, #235, #200, .T. ) ;
#196 = EDGE_LOOP ( 'NONE', ( #232, #110 ) ) ;
#197 = CALENDAR_DATE ( 2023, 12, 2 ) ;
#198 = ORIENTED_EDGE ( 'NONE', *, *, #1, .F. ) ;
#199 = LINE ( 'NONE', #229, #75 ) ;
#200 = CIRCLE ( 'NONE', #93, 2.600000000000000089 ) ;
#201 = DIRECTION ( 'NONE',  ( 0.000000000000000000, 0.000000000000000000, 1.000000000000000000 ) ) ;
#202 = CC_DESIGN_PERSON_AND_ORGANIZATION_ASSIGNMENT ( #176, #136, ( #11 ) ) ;
#203 = FACE_BOUND ( 'NONE', #131, .T. ) ;
#204 = FACE_OUTER_BOUND ( 'NONE', #82, .T. ) ;
#205 = AXIS2_PLACEMENT_3D ( 'NONE', #61, #129, #109 ) ;
#206 = DIRECTION ( 'NONE',  ( 1.000000000000000000, 0.000000000000000000, 0.000000000000000000 ) ) ;
#207 = EDGE_CURVE ( 'NONE', #18, #64, #183, .T. ) ;
#208 = APPROVAL ( #84, 'NEURÈENÝ' ) ;
#209 = ORIENTED_EDGE ( 'NONE', *, *, #147, .T. ) ;
#210 = APPLICATION_PROTOCOL_DEFINITION ( 'international standard', 'config_control_design', 1994, #222 ) ;
#211 = VERTEX_POINT ( 'NONE', #36 ) ;
#212 = APPROVAL_PERSON_ORGANIZATION ( #220, #208, #236 ) ;
#213 = VERTEX_POINT ( 'NONE', #105 ) ;
#214 = APPLICATION_PROTOCOL_DEFINITION ( 'international standard', 'config_control_design', 1994, #233 ) ;
#215 = DIRECTION ( 'NONE',  ( -1.000000000000000000, 0.000000000000000000, 0.000000000000000000 ) ) ;
#216 = COORDINATED_UNIVERSAL_TIME_OFFSET ( 1, 0, .AHEAD. ) ;
#217 = PERSON_AND_ORGANIZATION ( #38, #108 ) ;
#218 = LOCAL_TIME ( 12, 43, 27.00000000000000000, #216 ) ;
#219 = CALENDAR_DATE ( 2023, 12, 2 ) ;
#220 = PERSON_AND_ORGANIZATION ( #38, #108 ) ;
#221 = ORIENTED_EDGE ( 'NONE', *, *, #20, .T. ) ;
#222 = APPLICATION_CONTEXT ( 'configuration controlled 3d designs of mechanical parts and assemblies' ) ;
#223 = CARTESIAN_POINT ( 'NONE',  ( 0.000000000000000000, 0.000000000000000000, 3.000000000000000000 ) ) ;
#224 = CARTESIAN_POINT ( 'NONE',  ( -5.000000000000000000, 0.000000000000000000, 3.000000000000000000 ) ) ;
#225 = AXIS2_PLACEMENT_3D ( 'NONE', #247, #73, #77 ) ;
#226 = DIRECTION ( 'NONE',  ( 0.000000000000000000, 0.000000000000000000, 1.000000000000000000 ) ) ;
#227 = DIRECTION ( 'NONE',  ( 0.000000000000000000, 0.000000000000000000, 1.000000000000000000 ) ) ;
#228 = APPROVAL_DATE_TIME ( #48, #208 ) ;
#229 = CARTESIAN_POINT ( 'NONE',  ( 2.600000000000000089, 3.184081677783118191E-16, 315.0000000000000000 ) ) ;
#230 = LOCAL_TIME ( 12, 43, 27.00000000000000000, #5 ) ;
#231 = APPROVAL ( #99, 'NEURÈENÝ' ) ;
#232 = ORIENTED_EDGE ( 'NONE', *, *, #71, .T. ) ;
#233 = APPLICATION_CONTEXT ( 'configuration controlled 3d designs of mechanical parts and assemblies' ) ;
#234 = PERSON_AND_ORGANIZATION_ROLE ( 'creator' ) ;
#235 = VERTEX_POINT ( 'NONE', #252 ) ;
#236 = APPROVAL_ROLE ( '' ) ;
#237 = EDGE_CURVE ( 'NONE', #23, #213, #146, .T. ) ;
#238 = VECTOR ( 'NONE', #54, 1000.000000000000000 ) ;
#239 = UNCERTAINTY_MEASURE_WITH_UNIT (LENGTH_MEASURE( 1.000000000000000082E-05 ), #17, 'distance_accuracy_value', 'NONE');
#240 = ORIENTED_EDGE ( 'NONE', *, *, #56, .F. ) ;
#241 = AXIS2_PLACEMENT_3D ( 'NONE', #21, #191, #215 ) ;
#242 = ORIENTED_EDGE ( 'NONE', *, *, #195, .T. ) ;
#243 = CARTESIAN_POINT ( 'NONE',  ( 0.000000000000000000, 0.000000000000000000, 315.0000000000000000 ) ) ;
#244 = PLANE ( 'NONE',  #149 ) ;
#245 = CARTESIAN_POINT ( 'NONE',  ( 0.000000000000000000, 0.000000000000000000, 3.000000000000000000 ) ) ;
#246 = EDGE_CURVE ( 'NONE', #23, #18, #46, .T. ) ;
#247 = CARTESIAN_POINT ( 'NONE',  ( 0.000000000000000000, 0.000000000000000000, 0.000000000000000000 ) ) ;
#248 = LOCAL_TIME ( 12, 43, 27.00000000000000000, #100 ) ;
#249 = AXIS2_PLACEMENT_3D ( 'NONE', #33, #89, #107 ) ;
#250 = PRODUCT_DEFINITION_SHAPE ( 'NONE', 'NONE',  #102 ) ;
#251 =( NAMED_UNIT ( * ) PLANE_ANGLE_UNIT ( ) SI_UNIT ( $, .RADIAN. ) );
#252 = CARTESIAN_POINT ( 'NONE',  ( 2.600000000000000089, 3.184081677783118191E-16, 3.000000000000000000 ) ) ;
#253 = EDGE_LOOP ( 'NONE', ( #240, #179, #221, #103 ) ) ;
#254 = VECTOR ( 'NONE', #171, 1000.000000000000000 ) ;
#255 = DIRECTION ( 'NONE',  ( 0.000000000000000000, 0.000000000000000000, 1.000000000000000000 ) ) ;
ENDSEC;
END-ISO-10303-21;
