ISO-10303-21;
HEADER;
FILE_DESCRIPTION (( 'STEP AP203' ),
    '1' );
FILE_NAME ('a87a.STEP',
    '2023-02-12T11:50:36',
    ( '' ),
    ( '' ),
    'SwSTEP 2.0',
    'SolidWorks 2019',
    '' );
FILE_SCHEMA (( 'CONFIG_CONTROL_DESIGN' ));
ENDSEC;

DATA;
#1 = ORIENTED_EDGE ( 'NONE', *, *, #54, .T. ) ;
#2 = LINE ( 'NONE', #34, #152 ) ;
#3 = ADVANCED_FACE ( 'NONE', ( #41 ), #120, .T. ) ;
#4 = ORIENTED_EDGE ( 'NONE', *, *, #122, .T. ) ;
#5 = CARTESIAN_POINT ( 'NONE',  ( 0.000000000000000000, 0.000000000000000000, 0.000000000000000000 ) ) ;
#6 = PERSON ( 'NEURÈENÝ', 'NEURÈENÝ', 'NEURÈENÝ', ('NEURÈENÝ'), ('NEURÈENÝ'), ('NEURÈENÝ') ) ;
#7 = LINE ( 'NONE', #44, #99 ) ;
#8 = DIRECTION ( 'NONE',  ( 0.000000000000000000, 0.000000000000000000, 1.000000000000000000 ) ) ;
#9 = PERSON_AND_ORGANIZATION_ROLE ( 'design_owner' ) ;
#10 = CARTESIAN_POINT ( 'NONE',  ( 0.000000000000000000, 0.000000000000000000, 500.0000000000000000 ) ) ;
#11 = EDGE_CURVE ( 'NONE', #185, #177, #136, .T. ) ;
#12 = CARTESIAN_POINT ( 'NONE',  ( 0.000000000000000000, 0.000000000000000000, 3.000000000000000000 ) ) ;
#13 = DIRECTION ( 'NONE',  ( 1.000000000000000000, 0.000000000000000000, 0.000000000000000000 ) ) ;
#14 = CC_DESIGN_PERSON_AND_ORGANIZATION_ASSIGNMENT ( #228, #65, ( #141 ) ) ;
#15 = CARTESIAN_POINT ( 'NONE',  ( 0.000000000000000000, 0.000000000000000000, 3.000000000000000000 ) ) ;
#16 = EDGE_LOOP ( 'NONE', ( #244, #239 ) ) ;
#17 = CARTESIAN_POINT ( 'NONE',  ( 0.000000000000000000, 0.000000000000000000, 0.000000000000000000 ) ) ;
#18 = ORIENTED_EDGE ( 'NONE', *, *, #253, .T. ) ;
#19 = PRODUCT_DEFINITION_SHAPE ( 'NONE', 'NONE',  #141 ) ;
#20 = CARTESIAN_POINT ( 'NONE',  ( 5.000000000000000000, 6.123233995736766282E-16, 3.000000000000000000 ) ) ;
#21 =( NAMED_UNIT ( * ) PLANE_ANGLE_UNIT ( ) SI_UNIT ( $, .RADIAN. ) );
#22 = ORGANIZATION ( 'NEURÈENÝ', 'NEURÈENÝ', '' ) ;
#23 = DIRECTION ( 'NONE',  ( 1.000000000000000000, 0.000000000000000000, -0.000000000000000000 ) ) ;
#24 = EDGE_LOOP ( 'NONE', ( #25, #237, #245, #43 ) ) ;
#25 = ORIENTED_EDGE ( 'NONE', *, *, #253, .F. ) ;
#26 = VERTEX_POINT ( 'NONE', #117 ) ;
#27 = COORDINATED_UNIVERSAL_TIME_OFFSET ( 1, 0, .AHEAD. ) ;
#28 = LINE ( 'NONE', #188, #168 ) ;
#29 = AXIS2_PLACEMENT_3D ( 'NONE', #181, #243, #204 ) ;
#30 = AXIS2_PLACEMENT_3D ( 'NONE', #183, #116, #23 ) ;
#31 = CC_DESIGN_DATE_AND_TIME_ASSIGNMENT ( #210, #45, ( #141 ) ) ;
#32 = CARTESIAN_POINT ( 'NONE',  ( -5.000000000000000000, 0.000000000000000000, 0.000000000000000000 ) ) ;
#33 = APPROVAL_ROLE ( '' ) ;
#34 = CARTESIAN_POINT ( 'NONE',  ( -2.500000000000000000, 0.000000000000000000, 500.0000000000000000 ) ) ;
#35 = DATE_AND_TIME ( #102, #64 ) ;
#36 = SECURITY_CLASSIFICATION ( '', '', #157 ) ;
#37 = CC_DESIGN_DATE_AND_TIME_ASSIGNMENT ( #134, #129, ( #36 ) ) ;
#38 = VERTEX_POINT ( 'NONE', #180 ) ;
#39 = CIRCLE ( 'NONE', #186, 2.500000000000000000 ) ;
#40 = DIRECTION ( 'NONE',  ( 1.000000000000000000, 0.000000000000000000, 0.000000000000000000 ) ) ;
#41 = FACE_OUTER_BOUND ( 'NONE', #24, .T. ) ;
#42 = PLANE ( 'NONE',  #30 ) ;
#43 = ORIENTED_EDGE ( 'NONE', *, *, #147, .T. ) ;
#44 = CARTESIAN_POINT ( 'NONE',  ( 5.000000000000000000, 6.123233995736766282E-16, 3.000000000000000000 ) ) ;
#45 = DATE_TIME_ROLE ( 'creation_date' ) ;
#46 = DIRECTION ( 'NONE',  ( -1.000000000000000000, 0.000000000000000000, 0.000000000000000000 ) ) ;
#47 = EDGE_LOOP ( 'NONE', ( #97, #75 ) ) ;
#48 = DIRECTION ( 'NONE',  ( 1.000000000000000000, 0.000000000000000000, 0.000000000000000000 ) ) ;
#49 = DIRECTION ( 'NONE',  ( 0.000000000000000000, 0.000000000000000000, 1.000000000000000000 ) ) ;
#50 = DIRECTION ( 'NONE',  ( 0.000000000000000000, 0.000000000000000000, 1.000000000000000000 ) ) ;
#51 = CALENDAR_DATE ( 2023, 12, 2 ) ;
#52 = APPROVAL_DATE_TIME ( #154, #166 ) ;
#53 = APPROVAL_PERSON_ORGANIZATION ( #192, #166, #33 ) ;
#54 = EDGE_CURVE ( 'NONE', #61, #100, #225, .T. ) ;
#55 = DIRECTION ( 'NONE',  ( 0.000000000000000000, 0.000000000000000000, 1.000000000000000000 ) ) ;
#56 = DIRECTION ( 'NONE',  ( 1.000000000000000000, 0.000000000000000000, 0.000000000000000000 ) ) ;
#57 = EDGE_CURVE ( 'NONE', #26, #74, #148, .T. ) ;
#58 = FACE_OUTER_BOUND ( 'NONE', #92, .T. ) ;
#59 = DIRECTION ( 'NONE',  ( 1.000000000000000000, 0.000000000000000000, 0.000000000000000000 ) ) ;
#60 = AXIS2_PLACEMENT_3D ( 'NONE', #12, #50, #67 ) ;
#61 = VERTEX_POINT ( 'NONE', #200 ) ;
#62 = EDGE_LOOP ( 'NONE', ( #98, #146, #144, #222 ) ) ;
#63 = EDGE_CURVE ( 'NONE', #177, #100, #201, .T. ) ;
#64 = LOCAL_TIME ( 12, 50, 36.00000000000000000, #27 ) ;
#65 = PERSON_AND_ORGANIZATION_ROLE ( 'creator' ) ;
#66 = CARTESIAN_POINT ( 'NONE',  ( -2.500000000000000000, 0.000000000000000000, 3.000000000000000000 ) ) ;
#67 = DIRECTION ( 'NONE',  ( 1.000000000000000000, 0.000000000000000000, 0.000000000000000000 ) ) ;
#68 = PRODUCT ( 'a87a', 'a87a', '', ( #83 ) ) ;
#69 = DESIGN_CONTEXT ( 'detailed design', #115, 'design' ) ;
#70 = CARTESIAN_POINT ( 'NONE',  ( -5.000000000000000000, 0.000000000000000000, 3.000000000000000000 ) ) ;
#71 = VECTOR ( 'NONE', #84, 1000.000000000000000 ) ;
#72 = DIRECTION ( 'NONE',  ( 1.000000000000000000, 0.000000000000000000, -0.000000000000000000 ) ) ;
#73 = PERSON_AND_ORGANIZATION_ROLE ( 'creator' ) ;
#74 = VERTEX_POINT ( 'NONE', #169 ) ;
#75 = ORIENTED_EDGE ( 'NONE', *, *, #11, .T. ) ;
#76 = AXIS2_PLACEMENT_3D ( 'NONE', #17, #131, #113 ) ;
#77 = PRODUCT_RELATED_PRODUCT_CATEGORY ( 'detail', '', ( #68 ) ) ;
#78 = DIRECTION ( 'NONE',  ( 0.000000000000000000, 0.000000000000000000, 1.000000000000000000 ) ) ;
#79 = AXIS2_PLACEMENT_3D ( 'NONE', #229, #130, #151 ) ;
#80 = APPROVAL_PERSON_ORGANIZATION ( #171, #91, #205 ) ;
#81 = APPROVAL_DATE_TIME ( #107, #240 ) ;
#82 = ORIENTED_EDGE ( 'NONE', *, *, #57, .T. ) ;
#83 = MECHANICAL_CONTEXT ( 'NONE', #101, 'mechanical' ) ;
#84 = DIRECTION ( 'NONE',  ( -0.000000000000000000, -0.000000000000000000, -1.000000000000000000 ) ) ;
#85 = COORDINATED_UNIVERSAL_TIME_OFFSET ( 1, 0, .AHEAD. ) ;
#86 = CARTESIAN_POINT ( 'NONE',  ( 0.000000000000000000, 0.000000000000000000, 500.0000000000000000 ) ) ;
#87 = COORDINATED_UNIVERSAL_TIME_OFFSET ( 1, 0, .AHEAD. ) ;
#88 = APPROVAL_DATE_TIME ( #35, #91 ) ;
#89 = ADVANCED_BREP_SHAPE_REPRESENTATION ( 'a87a', ( #193, #132 ), #105 ) ;
#90 = AXIS2_PLACEMENT_3D ( 'NONE', #86, #207, #232 ) ;
#91 = APPROVAL ( #123, 'NEURÈENÝ' ) ;
#92 = EDGE_LOOP ( 'NONE', ( #242, #82 ) ) ;
#93 = CC_DESIGN_PERSON_AND_ORGANIZATION_ASSIGNMENT ( #198, #73, ( #173 ) ) ;
#94 =( NAMED_UNIT ( * ) SI_UNIT ( $, .STERADIAN. ) SOLID_ANGLE_UNIT ( ) );
#95 = DIRECTION ( 'NONE',  ( 0.000000000000000000, 0.000000000000000000, 1.000000000000000000 ) ) ;
#96 = LOCAL_TIME ( 12, 50, 36.00000000000000000, #158 ) ;
#97 = ORIENTED_EDGE ( 'NONE', *, *, #174, .T. ) ;
#98 = ORIENTED_EDGE ( 'NONE', *, *, #57, .F. ) ;
#99 = VECTOR ( 'NONE', #164, 1000.000000000000000 ) ;
#100 = VERTEX_POINT ( 'NONE', #32 ) ;
#101 = APPLICATION_CONTEXT ( 'configuration controlled 3d designs of mechanical parts and assemblies' ) ;
#102 = CALENDAR_DATE ( 2023, 12, 2 ) ;
#103 = APPROVAL_STATUS ( 'not_yet_approved' ) ;
#104 = CIRCLE ( 'NONE', #60, 2.500000000000000000 ) ;
#105 =( GEOMETRIC_REPRESENTATION_CONTEXT ( 3 ) GLOBAL_UNCERTAINTY_ASSIGNED_CONTEXT ( ( #212 ) ) GLOBAL_UNIT_ASSIGNED_CONTEXT ( ( #119, #21, #94 ) ) REPRESENTATION_CONTEXT ( 'NONE', 'WORKASPACE' ) );
#106 = CALENDAR_DATE ( 2023, 12, 2 ) ;
#107 = DATE_AND_TIME ( #106, #143 ) ;
#108 = ADVANCED_FACE ( 'NONE', ( #251 ), #190, .T. ) ;
#109 = DIRECTION ( 'NONE',  ( -0.000000000000000000, -0.000000000000000000, -1.000000000000000000 ) ) ;
#110 = EDGE_CURVE ( 'NONE', #26, #38, #28, .T. ) ;
#111 = PERSON_AND_ORGANIZATION_ROLE ( 'design_supplier' ) ;
#112 = DIRECTION ( 'NONE',  ( 1.000000000000000000, 0.000000000000000000, 0.000000000000000000 ) ) ;
#113 = DIRECTION ( 'NONE',  ( 1.000000000000000000, 0.000000000000000000, -0.000000000000000000 ) ) ;
#114 = EDGE_LOOP ( 'NONE', ( #165, #18, #1, #139 ) ) ;
#115 = APPLICATION_CONTEXT ( 'configuration controlled 3d designs of mechanical parts and assemblies' ) ;
#116 = DIRECTION ( 'NONE',  ( 0.000000000000000000, 0.000000000000000000, 1.000000000000000000 ) ) ;
#117 = CARTESIAN_POINT ( 'NONE',  ( 2.500000000000000000, 3.061616997868382648E-16, 500.0000000000000000 ) ) ;
#118 = EDGE_CURVE ( 'NONE', #74, #26, #39, .T. ) ;
#119 =( LENGTH_UNIT ( ) NAMED_UNIT ( * ) SI_UNIT ( .MILLI., .METRE. ) );
#120 = CYLINDRICAL_SURFACE ( 'NONE', #29, 5.000000000000000000 ) ;
#121 = AXIS2_PLACEMENT_3D ( 'NONE', #206, #227, #46 ) ;
#122 = EDGE_CURVE ( 'NONE', #142, #38, #104, .T. ) ;
#123 = APPROVAL_STATUS ( 'not_yet_approved' ) ;
#124 = CYLINDRICAL_SURFACE ( 'NONE', #121, 5.000000000000000000 ) ;
#125 = DIRECTION ( 'NONE',  ( 0.000000000000000000, 0.000000000000000000, 1.000000000000000000 ) ) ;
#126 = CIRCLE ( 'NONE', #219, 5.000000000000000000 ) ;
#127 = APPROVAL_ROLE ( '' ) ;
#128 = ADVANCED_FACE ( 'NONE', ( #150 ), #248, .T. ) ;
#129 = DATE_TIME_ROLE ( 'classification_date' ) ;
#130 = DIRECTION ( 'NONE',  ( -0.000000000000000000, -0.000000000000000000, -1.000000000000000000 ) ) ;
#131 = DIRECTION ( 'NONE',  ( 0.000000000000000000, 0.000000000000000000, 1.000000000000000000 ) ) ;
#132 = AXIS2_PLACEMENT_3D ( 'NONE', #241, #55, #48 ) ;
#133 = EDGE_CURVE ( 'NONE', #38, #142, #162, .T. ) ;
#134 = DATE_AND_TIME ( #178, #96 ) ;
#135 = PERSON_AND_ORGANIZATION ( #6, #22 ) ;
#136 = CIRCLE ( 'NONE', #209, 5.000000000000000000 ) ;
#137 = FACE_OUTER_BOUND ( 'NONE', #220, .T. ) ;
#138 = CC_DESIGN_SECURITY_CLASSIFICATION ( #36, ( #173 ) ) ;
#139 = ORIENTED_EDGE ( 'NONE', *, *, #63, .F. ) ;
#140 = CARTESIAN_POINT ( 'NONE',  ( 0.000000000000000000, 0.000000000000000000, 500.0000000000000000 ) ) ;
#141 = PRODUCT_DEFINITION ( 'NEZNÁMÝ', '', #173, #69 ) ;
#142 = VERTEX_POINT ( 'NONE', #66 ) ;
#143 = LOCAL_TIME ( 12, 50, 36.00000000000000000, #213 ) ;
#144 = ORIENTED_EDGE ( 'NONE', *, *, #133, .T. ) ;
#145 = APPLICATION_PROTOCOL_DEFINITION ( 'international standard', 'config_control_design', 1994, #101 ) ;
#146 = ORIENTED_EDGE ( 'NONE', *, *, #110, .T. ) ;
#147 = EDGE_CURVE ( 'NONE', #100, #61, #149, .T. ) ;
#148 = CIRCLE ( 'NONE', #217, 2.500000000000000000 ) ;
#149 = CIRCLE ( 'NONE', #170, 5.000000000000000000 ) ;
#150 = FACE_OUTER_BOUND ( 'NONE', #62, .T. ) ;
#151 = DIRECTION ( 'NONE',  ( -1.000000000000000000, 0.000000000000000000, 0.000000000000000000 ) ) ;
#152 = VECTOR ( 'NONE', #235, 1000.000000000000000 ) ;
#153 = ADVANCED_FACE ( 'NONE', ( #214 ), #124, .T. ) ;
#154 = DATE_AND_TIME ( #51, #199 ) ;
#155 = FACE_OUTER_BOUND ( 'NONE', #47, .T. ) ;
#156 = CLOSED_SHELL ( 'NONE', ( #128, #153, #3, #203, #184, #108, #224 ) ) ;
#157 = SECURITY_CLASSIFICATION_LEVEL ( 'unclassified' ) ;
#158 = COORDINATED_UNIVERSAL_TIME_OFFSET ( 1, 0, .AHEAD. ) ;
#159 = ORIENTED_EDGE ( 'NONE', *, *, #110, .F. ) ;
#160 = CC_DESIGN_APPROVAL ( #91, ( #173 ) ) ;
#161 = ORIENTED_EDGE ( 'NONE', *, *, #189, .T. ) ;
#162 = CIRCLE ( 'NONE', #197, 2.500000000000000000 ) ;
#163 = ORIENTED_EDGE ( 'NONE', *, *, #118, .F. ) ;
#164 = DIRECTION ( 'NONE',  ( -0.000000000000000000, -0.000000000000000000, -1.000000000000000000 ) ) ;
#165 = ORIENTED_EDGE ( 'NONE', *, *, #11, .F. ) ;
#166 = APPROVAL ( #196, 'NEURÈENÝ' ) ;
#167 = CARTESIAN_POINT ( 'NONE',  ( 0.000000000000000000, 0.000000000000000000, 3.000000000000000000 ) ) ;
#168 = VECTOR ( 'NONE', #109, 1000.000000000000000 ) ;
#169 = CARTESIAN_POINT ( 'NONE',  ( -2.500000000000000000, 0.000000000000000000, 500.0000000000000000 ) ) ;
#170 = AXIS2_PLACEMENT_3D ( 'NONE', #246, #49, #226 ) ;
#171 = PERSON_AND_ORGANIZATION ( #6, #22 ) ;
#172 = CARTESIAN_POINT ( 'NONE',  ( 0.000000000000000000, 0.000000000000000000, 3.000000000000000000 ) ) ;
#173 = PRODUCT_DEFINITION_FORMATION_WITH_SPECIFIED_SOURCE ( 'LIBOVOLNÝ', '', #68, .NOT_KNOWN. ) ;
#174 = EDGE_CURVE ( 'NONE', #177, #185, #126, .T. ) ;
#175 = SHAPE_DEFINITION_REPRESENTATION ( #19, #89 ) ;
#176 = APPROVAL_PERSON_ORGANIZATION ( #249, #240, #127 ) ;
#177 = VERTEX_POINT ( 'NONE', #70 ) ;
#178 = CALENDAR_DATE ( 2023, 12, 2 ) ;
#179 = ORIENTED_EDGE ( 'NONE', *, *, #147, .F. ) ;
#180 = CARTESIAN_POINT ( 'NONE',  ( 2.500000000000000000, 3.061616997868382648E-16, 3.000000000000000000 ) ) ;
#181 = CARTESIAN_POINT ( 'NONE',  ( 0.000000000000000000, 0.000000000000000000, 3.000000000000000000 ) ) ;
#182 = CARTESIAN_POINT ( 'NONE',  ( -5.000000000000000000, 0.000000000000000000, 3.000000000000000000 ) ) ;
#183 = CARTESIAN_POINT ( 'NONE',  ( 0.000000000000000000, 0.000000000000000000, 500.0000000000000000 ) ) ;
#184 = ADVANCED_FACE ( 'NONE', ( #137 ), #236, .F. ) ;
#185 = VERTEX_POINT ( 'NONE', #20 ) ;
#186 = AXIS2_PLACEMENT_3D ( 'NONE', #10, #8, #13 ) ;
#187 = CALENDAR_DATE ( 2023, 12, 2 ) ;
#188 = CARTESIAN_POINT ( 'NONE',  ( 2.500000000000000000, 3.061616997868382648E-16, 500.0000000000000000 ) ) ;
#189 = EDGE_CURVE ( 'NONE', #74, #142, #2, .T. ) ;
#190 = CYLINDRICAL_SURFACE ( 'NONE', #90, 2.500000000000000000 ) ;
#191 = PERSON_AND_ORGANIZATION ( #6, #22 ) ;
#192 = PERSON_AND_ORGANIZATION ( #6, #22 ) ;
#193 = MANIFOLD_SOLID_BREP ( 'Pøidat vysunutím3', #156 ) ;
#194 = AXIS2_PLACEMENT_3D ( 'NONE', #15, #254, #72 ) ;
#195 = PERSON_AND_ORGANIZATION ( #6, #22 ) ;
#196 = APPROVAL_STATUS ( 'not_yet_approved' ) ;
#197 = AXIS2_PLACEMENT_3D ( 'NONE', #167, #125, #230 ) ;
#198 = PERSON_AND_ORGANIZATION ( #6, #22 ) ;
#199 = LOCAL_TIME ( 12, 50, 36.00000000000000000, #87 ) ;
#200 = CARTESIAN_POINT ( 'NONE',  ( 5.000000000000000000, 6.123233995736766282E-16, 0.000000000000000000 ) ) ;
#201 = LINE ( 'NONE', #182, #71 ) ;
#202 = AXIS2_PLACEMENT_3D ( 'NONE', #5, #78, #59 ) ;
#203 = ADVANCED_FACE ( 'NONE', ( #234, #155 ), #238, .T. ) ;
#204 = DIRECTION ( 'NONE',  ( -1.000000000000000000, 0.000000000000000000, 0.000000000000000000 ) ) ;
#205 = APPROVAL_ROLE ( '' ) ;
#206 = CARTESIAN_POINT ( 'NONE',  ( 0.000000000000000000, 0.000000000000000000, 3.000000000000000000 ) ) ;
#207 = DIRECTION ( 'NONE',  ( -0.000000000000000000, -0.000000000000000000, -1.000000000000000000 ) ) ;
#208 = CC_DESIGN_PERSON_AND_ORGANIZATION_ASSIGNMENT ( #135, #233, ( #36 ) ) ;
#209 = AXIS2_PLACEMENT_3D ( 'NONE', #223, #95, #56 ) ;
#210 = DATE_AND_TIME ( #187, #218 ) ;
#211 = ORIENTED_EDGE ( 'NONE', *, *, #54, .F. ) ;
#212 = UNCERTAINTY_MEASURE_WITH_UNIT (LENGTH_MEASURE( 1.000000000000000082E-05 ), #119, 'distance_accuracy_value', 'NONE');
#213 = COORDINATED_UNIVERSAL_TIME_OFFSET ( 1, 0, .AHEAD. ) ;
#214 = FACE_OUTER_BOUND ( 'NONE', #114, .T. ) ;
#215 = CC_DESIGN_PERSON_AND_ORGANIZATION_ASSIGNMENT ( #191, #9, ( #68 ) ) ;
#216 = DIRECTION ( 'NONE',  ( 0.000000000000000000, 0.000000000000000000, 1.000000000000000000 ) ) ;
#217 = AXIS2_PLACEMENT_3D ( 'NONE', #140, #221, #40 ) ;
#218 = LOCAL_TIME ( 12, 50, 36.00000000000000000, #85 ) ;
#219 = AXIS2_PLACEMENT_3D ( 'NONE', #172, #216, #112 ) ;
#220 = EDGE_LOOP ( 'NONE', ( #179, #211 ) ) ;
#221 = DIRECTION ( 'NONE',  ( 0.000000000000000000, 0.000000000000000000, 1.000000000000000000 ) ) ;
#222 = ORIENTED_EDGE ( 'NONE', *, *, #189, .F. ) ;
#223 = CARTESIAN_POINT ( 'NONE',  ( 0.000000000000000000, 0.000000000000000000, 3.000000000000000000 ) ) ;
#224 = ADVANCED_FACE ( 'NONE', ( #58 ), #42, .T. ) ;
#225 = CIRCLE ( 'NONE', #202, 5.000000000000000000 ) ;
#226 = DIRECTION ( 'NONE',  ( 1.000000000000000000, 0.000000000000000000, 0.000000000000000000 ) ) ;
#227 = DIRECTION ( 'NONE',  ( -0.000000000000000000, -0.000000000000000000, -1.000000000000000000 ) ) ;
#228 = PERSON_AND_ORGANIZATION ( #6, #22 ) ;
#229 = CARTESIAN_POINT ( 'NONE',  ( 0.000000000000000000, 0.000000000000000000, 500.0000000000000000 ) ) ;
#230 = DIRECTION ( 'NONE',  ( 1.000000000000000000, 0.000000000000000000, 0.000000000000000000 ) ) ;
#231 = CC_DESIGN_APPROVAL ( #166, ( #36 ) ) ;
#232 = DIRECTION ( 'NONE',  ( -1.000000000000000000, 0.000000000000000000, 0.000000000000000000 ) ) ;
#233 = PERSON_AND_ORGANIZATION_ROLE ( 'classification_officer' ) ;
#234 = FACE_BOUND ( 'NONE', #16, .T. ) ;
#235 = DIRECTION ( 'NONE',  ( -0.000000000000000000, -0.000000000000000000, -1.000000000000000000 ) ) ;
#236 = PLANE ( 'NONE',  #76 ) ;
#237 = ORIENTED_EDGE ( 'NONE', *, *, #174, .F. ) ;
#238 = PLANE ( 'NONE',  #194 ) ;
#239 = ORIENTED_EDGE ( 'NONE', *, *, #133, .F. ) ;
#240 = APPROVAL ( #103, 'NEURÈENÝ' ) ;
#241 = CARTESIAN_POINT ( 'NONE',  ( 0.000000000000000000, 0.000000000000000000, 0.000000000000000000 ) ) ;
#242 = ORIENTED_EDGE ( 'NONE', *, *, #118, .T. ) ;
#243 = DIRECTION ( 'NONE',  ( -0.000000000000000000, -0.000000000000000000, -1.000000000000000000 ) ) ;
#244 = ORIENTED_EDGE ( 'NONE', *, *, #122, .F. ) ;
#245 = ORIENTED_EDGE ( 'NONE', *, *, #63, .T. ) ;
#246 = CARTESIAN_POINT ( 'NONE',  ( 0.000000000000000000, 0.000000000000000000, 0.000000000000000000 ) ) ;
#247 = CC_DESIGN_PERSON_AND_ORGANIZATION_ASSIGNMENT ( #195, #111, ( #173 ) ) ;
#248 = CYLINDRICAL_SURFACE ( 'NONE', #79, 2.500000000000000000 ) ;
#249 = PERSON_AND_ORGANIZATION ( #6, #22 ) ;
#250 = APPLICATION_PROTOCOL_DEFINITION ( 'international standard', 'config_control_design', 1994, #115 ) ;
#251 = FACE_OUTER_BOUND ( 'NONE', #252, .T. ) ;
#252 = EDGE_LOOP ( 'NONE', ( #159, #163, #161, #4 ) ) ;
#253 = EDGE_CURVE ( 'NONE', #185, #61, #7, .T. ) ;
#254 = DIRECTION ( 'NONE',  ( 0.000000000000000000, 0.000000000000000000, 1.000000000000000000 ) ) ;
#255 = CC_DESIGN_APPROVAL ( #240, ( #141 ) ) ;
ENDSEC;
END-ISO-10303-21;
