ISO-10303-21;
HEADER;
FILE_DESCRIPTION (( 'STEP AP203' ),
    '1' );
FILE_NAME ('2df0.STEP',
    '2023-02-12T12:02:33',
    ( '' ),
    ( '' ),
    'SwSTEP 2.0',
    'SolidWorks 2019',
    '' );
FILE_SCHEMA (( 'CONFIG_CONTROL_DESIGN' ));
ENDSEC;

DATA;
#1 = DATE_AND_TIME ( #199, #203 ) ;
#2 = AXIS2_PLACEMENT_3D ( 'NONE', #248, #76, #195 ) ;
#3 = CARTESIAN_POINT ( 'NONE',  ( 2.000000000000000000, 2.449293598294706414E-16, 200.0000000000000000 ) ) ;
#4 = EDGE_CURVE ( 'NONE', #50, #223, #96, .T. ) ;
#5 = APPROVAL_STATUS ( 'not_yet_approved' ) ;
#6 = PRODUCT_DEFINITION_SHAPE ( 'NONE', 'NONE',  #180 ) ;
#7 = AXIS2_PLACEMENT_3D ( 'NONE', #16, #97, #175 ) ;
#8 = PERSON_AND_ORGANIZATION_ROLE ( 'design_supplier' ) ;
#9 = ORIENTED_EDGE ( 'NONE', *, *, #210, .F. ) ;
#10 = CIRCLE ( 'NONE', #156, 2.000000000000000000 ) ;
#11 = PERSON_AND_ORGANIZATION_ROLE ( 'classification_officer' ) ;
#12 = SHAPE_DEFINITION_REPRESENTATION ( #6, #55 ) ;
#13 = EDGE_LOOP ( 'NONE', ( #178, #65 ) ) ;
#14 = LINE ( 'NONE', #192, #125 ) ;
#15 = ORGANIZATION ( 'NEURÈENÝ', 'NEURÈENÝ', '' ) ;
#16 = CARTESIAN_POINT ( 'NONE',  ( 0.000000000000000000, 0.000000000000000000, 3.000000000000000000 ) ) ;
#17 = DIRECTION ( 'NONE',  ( -0.000000000000000000, -0.000000000000000000, -1.000000000000000000 ) ) ;
#18 = ADVANCED_FACE ( 'NONE', ( #98 ), #133, .T. ) ;
#19 = FACE_OUTER_BOUND ( 'NONE', #13, .T. ) ;
#20 = DIRECTION ( 'NONE',  ( 1.000000000000000000, 0.000000000000000000, -0.000000000000000000 ) ) ;
#21 = DIRECTION ( 'NONE',  ( 0.000000000000000000, 0.000000000000000000, 1.000000000000000000 ) ) ;
#22 = DIRECTION ( 'NONE',  ( 1.000000000000000000, 0.000000000000000000, 0.000000000000000000 ) ) ;
#23 = CARTESIAN_POINT ( 'NONE',  ( -4.000000000000000000, 0.000000000000000000, 0.000000000000000000 ) ) ;
#24 = CC_DESIGN_PERSON_AND_ORGANIZATION_ASSIGNMENT ( #44, #137, ( #30 ) ) ;
#25 = CIRCLE ( 'NONE', #209, 4.000000000000000000 ) ;
#26 = APPROVAL_PERSON_ORGANIZATION ( #182, #243, #88 ) ;
#27 = VERTEX_POINT ( 'NONE', #231 ) ;
#28 = PERSON_AND_ORGANIZATION ( #74, #15 ) ;
#29 = ORIENTED_EDGE ( 'NONE', *, *, #176, .T. ) ;
#30 = PRODUCT ( '2df0', '2df0', '', ( #238 ) ) ;
#31 = ORIENTED_EDGE ( 'NONE', *, *, #142, .F. ) ;
#32 = ORIENTED_EDGE ( 'NONE', *, *, #4, .T. ) ;
#33 = DIRECTION ( 'NONE',  ( 0.000000000000000000, 0.000000000000000000, 1.000000000000000000 ) ) ;
#34 = LOCAL_TIME ( 13, 2, 33.00000000000000000, #241 ) ;
#35 = DIRECTION ( 'NONE',  ( -0.000000000000000000, -0.000000000000000000, -1.000000000000000000 ) ) ;
#36 = CARTESIAN_POINT ( 'NONE',  ( 0.000000000000000000, 0.000000000000000000, 200.0000000000000000 ) ) ;
#37 = CARTESIAN_POINT ( 'NONE',  ( 4.000000000000000000, 4.898587196589412829E-16, 3.000000000000000000 ) ) ;
#38 = DATE_TIME_ROLE ( 'creation_date' ) ;
#39 = APPLICATION_CONTEXT ( 'configuration controlled 3d designs of mechanical parts and assemblies' ) ;
#40 = COORDINATED_UNIVERSAL_TIME_OFFSET ( 1, 0, .AHEAD. ) ;
#41 = MANIFOLD_SOLID_BREP ( 'Pøidat vysunutím3', #198 ) ;
#42 = CIRCLE ( 'NONE', #247, 2.000000000000000000 ) ;
#43 = CARTESIAN_POINT ( 'NONE',  ( 0.000000000000000000, 0.000000000000000000, 3.000000000000000000 ) ) ;
#44 = PERSON_AND_ORGANIZATION ( #74, #15 ) ;
#45 = APPROVAL_DATE_TIME ( #148, #135 ) ;
#46 = EDGE_CURVE ( 'NONE', #75, #93, #14, .T. ) ;
#47 = PERSON_AND_ORGANIZATION_ROLE ( 'creator' ) ;
#48 = ORIENTED_EDGE ( 'NONE', *, *, #251, .F. ) ;
#49 = LOCAL_TIME ( 13, 2, 33.00000000000000000, #95 ) ;
#50 = VERTEX_POINT ( 'NONE', #37 ) ;
#51 = APPLICATION_CONTEXT ( 'configuration controlled 3d designs of mechanical parts and assemblies' ) ;
#52 = CARTESIAN_POINT ( 'NONE',  ( -2.000000000000000000, 0.000000000000000000, 200.0000000000000000 ) ) ;
#53 = EDGE_CURVE ( 'NONE', #223, #188, #25, .T. ) ;
#54 = DIRECTION ( 'NONE',  ( -0.000000000000000000, -0.000000000000000000, -1.000000000000000000 ) ) ;
#55 = ADVANCED_BREP_SHAPE_REPRESENTATION ( '2df0', ( #41, #68 ), #100 ) ;
#56 = DIRECTION ( 'NONE',  ( 0.000000000000000000, 0.000000000000000000, 1.000000000000000000 ) ) ;
#57 = DIRECTION ( 'NONE',  ( 0.000000000000000000, 0.000000000000000000, 1.000000000000000000 ) ) ;
#58 = AXIS2_PLACEMENT_3D ( 'NONE', #215, #196, #20 ) ;
#59 = DIRECTION ( 'NONE',  ( -0.000000000000000000, -0.000000000000000000, -1.000000000000000000 ) ) ;
#60 = CC_DESIGN_APPROVAL ( #243, ( #180 ) ) ;
#61 = CYLINDRICAL_SURFACE ( 'NONE', #141, 4.000000000000000000 ) ;
#62 = ADVANCED_FACE ( 'NONE', ( #174 ), #113, .T. ) ;
#63 =( NAMED_UNIT ( * ) SI_UNIT ( $, .STERADIAN. ) SOLID_ANGLE_UNIT ( ) );
#64 = CARTESIAN_POINT ( 'NONE',  ( 0.000000000000000000, 0.000000000000000000, 0.000000000000000000 ) ) ;
#65 = ORIENTED_EDGE ( 'NONE', *, *, #255, .T. ) ;
#66 = PERSON_AND_ORGANIZATION ( #74, #15 ) ;
#67 = ORIENTED_EDGE ( 'NONE', *, *, #4, .F. ) ;
#68 = AXIS2_PLACEMENT_3D ( 'NONE', #64, #140, #120 ) ;
#69 = DATE_AND_TIME ( #187, #34 ) ;
#70 = ORIENTED_EDGE ( 'NONE', *, *, #53, .F. ) ;
#71 = ADVANCED_FACE ( 'NONE', ( #228 ), #154, .T. ) ;
#72 = AXIS2_PLACEMENT_3D ( 'NONE', #227, #59, #130 ) ;
#73 = ORIENTED_EDGE ( 'NONE', *, *, #121, .F. ) ;
#74 = PERSON ( 'NEURÈENÝ', 'NEURÈENÝ', 'NEURÈENÝ', ('NEURÈENÝ'), ('NEURÈENÝ'), ('NEURÈENÝ') ) ;
#75 = VERTEX_POINT ( 'NONE', #52 ) ;
#76 = DIRECTION ( 'NONE',  ( 0.000000000000000000, 0.000000000000000000, 1.000000000000000000 ) ) ;
#77 = ADVANCED_FACE ( 'NONE', ( #179, #19 ), #110, .T. ) ;
#78 = CARTESIAN_POINT ( 'NONE',  ( -4.000000000000000000, 0.000000000000000000, 3.000000000000000000 ) ) ;
#79 = VERTEX_POINT ( 'NONE', #83 ) ;
#80 = VECTOR ( 'NONE', #234, 1000.000000000000000 ) ;
#81 = ORIENTED_EDGE ( 'NONE', *, *, #142, .T. ) ;
#82 = PRODUCT_RELATED_PRODUCT_CATEGORY ( 'detail', '', ( #30 ) ) ;
#83 = CARTESIAN_POINT ( 'NONE',  ( 2.000000000000000000, 2.449293598294706414E-16, 200.0000000000000000 ) ) ;
#84 = APPLICATION_PROTOCOL_DEFINITION ( 'international standard', 'config_control_design', 1994, #39 ) ;
#85 = APPROVAL_STATUS ( 'not_yet_approved' ) ;
#86 = PERSON_AND_ORGANIZATION ( #74, #15 ) ;
#87 = FACE_OUTER_BOUND ( 'NONE', #171, .T. ) ;
#88 = APPROVAL_ROLE ( '' ) ;
#89 = PERSON_AND_ORGANIZATION ( #74, #15 ) ;
#90 = ADVANCED_FACE ( 'NONE', ( #233 ), #194, .T. ) ;
#91 = AXIS2_PLACEMENT_3D ( 'NONE', #254, #212, #252 ) ;
#92 = ORIENTED_EDGE ( 'NONE', *, *, #176, .F. ) ;
#93 = VERTEX_POINT ( 'NONE', #214 ) ;
#94 = LOCAL_TIME ( 13, 2, 33.00000000000000000, #40 ) ;
#95 = COORDINATED_UNIVERSAL_TIME_OFFSET ( 1, 0, .AHEAD. ) ;
#96 = LINE ( 'NONE', #191, #165 ) ;
#97 = DIRECTION ( 'NONE',  ( 0.000000000000000000, 0.000000000000000000, 1.000000000000000000 ) ) ;
#98 = FACE_OUTER_BOUND ( 'NONE', #124, .T. ) ;
#99 = DIRECTION ( 'NONE',  ( 0.000000000000000000, 0.000000000000000000, 1.000000000000000000 ) ) ;
#100 =( GEOMETRIC_REPRESENTATION_CONTEXT ( 3 ) GLOBAL_UNCERTAINTY_ASSIGNED_CONTEXT ( ( #211 ) ) GLOBAL_UNIT_ASSIGNED_CONTEXT ( ( #237, #202, #63 ) ) REPRESENTATION_CONTEXT ( 'NONE', 'WORKASPACE' ) );
#101 = DIRECTION ( 'NONE',  ( -1.000000000000000000, 0.000000000000000000, 0.000000000000000000 ) ) ;
#102 = CARTESIAN_POINT ( 'NONE',  ( 0.000000000000000000, 0.000000000000000000, 3.000000000000000000 ) ) ;
#103 = ORIENTED_EDGE ( 'NONE', *, *, #221, .F. ) ;
#104 = APPROVAL ( #85, 'NEURÈENÝ' ) ;
#105 = PERSON_AND_ORGANIZATION ( #74, #15 ) ;
#106 = APPROVAL_STATUS ( 'not_yet_approved' ) ;
#107 = ORIENTED_EDGE ( 'NONE', *, *, #221, .T. ) ;
#108 = PLANE ( 'NONE',  #2 ) ;
#109 = ADVANCED_FACE ( 'NONE', ( #217 ), #108, .F. ) ;
#110 = PLANE ( 'NONE',  #91 ) ;
#111 = CARTESIAN_POINT ( 'NONE',  ( 0.000000000000000000, 0.000000000000000000, 3.000000000000000000 ) ) ;
#112 = AXIS2_PLACEMENT_3D ( 'NONE', #111, #17, #101 ) ;
#113 = PLANE ( 'NONE',  #58 ) ;
#114 = EDGE_CURVE ( 'NONE', #188, #223, #225, .T. ) ;
#115 = CARTESIAN_POINT ( 'NONE',  ( 0.000000000000000000, 0.000000000000000000, 0.000000000000000000 ) ) ;
#116 = DIRECTION ( 'NONE',  ( -0.000000000000000000, -0.000000000000000000, -1.000000000000000000 ) ) ;
#117 = APPLICATION_PROTOCOL_DEFINITION ( 'international standard', 'config_control_design', 1994, #51 ) ;
#118 = DATE_AND_TIME ( #184, #94 ) ;
#119 = DIRECTION ( 'NONE',  ( 1.000000000000000000, 0.000000000000000000, 0.000000000000000000 ) ) ;
#120 = DIRECTION ( 'NONE',  ( 1.000000000000000000, 0.000000000000000000, 0.000000000000000000 ) ) ;
#121 = EDGE_CURVE ( 'NONE', #27, #93, #159, .T. ) ;
#122 = CALENDAR_DATE ( 2023, 12, 2 ) ;
#123 = CALENDAR_DATE ( 2023, 12, 2 ) ;
#124 = EDGE_LOOP ( 'NONE', ( #103, #9, #189, #245 ) ) ;
#125 = VECTOR ( 'NONE', #35, 1000.000000000000000 ) ;
#126 = EDGE_LOOP ( 'NONE', ( #206, #29 ) ) ;
#127 = ORIENTED_EDGE ( 'NONE', *, *, #114, .F. ) ;
#128 = AXIS2_PLACEMENT_3D ( 'NONE', #102, #21, #22 ) ;
#129 = EDGE_LOOP ( 'NONE', ( #220, #73 ) ) ;
#130 = DIRECTION ( 'NONE',  ( -1.000000000000000000, 0.000000000000000000, 0.000000000000000000 ) ) ;
#131 = CARTESIAN_POINT ( 'NONE',  ( -4.000000000000000000, 0.000000000000000000, 3.000000000000000000 ) ) ;
#132 = DIRECTION ( 'NONE',  ( 1.000000000000000000, 0.000000000000000000, 0.000000000000000000 ) ) ;
#133 = CYLINDRICAL_SURFACE ( 'NONE', #222, 2.000000000000000000 ) ;
#134 = DIRECTION ( 'NONE',  ( -0.000000000000000000, -0.000000000000000000, -1.000000000000000000 ) ) ;
#135 = APPROVAL ( #106, 'NEURÈENÝ' ) ;
#136 = CIRCLE ( 'NONE', #253, 2.000000000000000000 ) ;
#137 = PERSON_AND_ORGANIZATION_ROLE ( 'design_owner' ) ;
#138 = DIRECTION ( 'NONE',  ( -1.000000000000000000, 0.000000000000000000, 0.000000000000000000 ) ) ;
#139 = APPROVAL_DATE_TIME ( #118, #243 ) ;
#140 = DIRECTION ( 'NONE',  ( 0.000000000000000000, 0.000000000000000000, 1.000000000000000000 ) ) ;
#141 = AXIS2_PLACEMENT_3D ( 'NONE', #167, #116, #138 ) ;
#142 = EDGE_CURVE ( 'NONE', #150, #188, #249, .T. ) ;
#143 = COORDINATED_UNIVERSAL_TIME_OFFSET ( 1, 0, .AHEAD. ) ;
#144 = VECTOR ( 'NONE', #54, 1000.000000000000000 ) ;
#145 = CC_DESIGN_DATE_AND_TIME_ASSIGNMENT ( #69, #207, ( #147 ) ) ;
#146 = APPROVAL_ROLE ( '' ) ;
#147 = SECURITY_CLASSIFICATION ( '', '', #169 ) ;
#148 = DATE_AND_TIME ( #122, #49 ) ;
#149 = ORIENTED_EDGE ( 'NONE', *, *, #121, .T. ) ;
#150 = VERTEX_POINT ( 'NONE', #131 ) ;
#151 = ORIENTED_EDGE ( 'NONE', *, *, #255, .F. ) ;
#152 = CIRCLE ( 'NONE', #157, 4.000000000000000000 ) ;
#153 = CARTESIAN_POINT ( 'NONE',  ( 0.000000000000000000, 0.000000000000000000, 0.000000000000000000 ) ) ;
#154 = CYLINDRICAL_SURFACE ( 'NONE', #112, 4.000000000000000000 ) ;
#155 = EDGE_LOOP ( 'NONE', ( #67, #48, #81, #204 ) ) ;
#156 = AXIS2_PLACEMENT_3D ( 'NONE', #36, #99, #197 ) ;
#157 = AXIS2_PLACEMENT_3D ( 'NONE', #43, #181, #119 ) ;
#158 = CARTESIAN_POINT ( 'NONE',  ( 0.000000000000000000, 0.000000000000000000, 200.0000000000000000 ) ) ;
#159 = CIRCLE ( 'NONE', #7, 2.000000000000000000 ) ;
#160 = DIRECTION ( 'NONE',  ( -1.000000000000000000, 0.000000000000000000, 0.000000000000000000 ) ) ;
#161 = CARTESIAN_POINT ( 'NONE',  ( 0.000000000000000000, 0.000000000000000000, 200.0000000000000000 ) ) ;
#162 = CC_DESIGN_APPROVAL ( #104, ( #239 ) ) ;
#163 = APPROVAL_ROLE ( '' ) ;
#164 = LINE ( 'NONE', #3, #80 ) ;
#165 = VECTOR ( 'NONE', #213, 1000.000000000000000 ) ;
#166 = EDGE_CURVE ( 'NONE', #93, #27, #42, .T. ) ;
#167 = CARTESIAN_POINT ( 'NONE',  ( 0.000000000000000000, 0.000000000000000000, 3.000000000000000000 ) ) ;
#168 = PERSON_AND_ORGANIZATION ( #74, #15 ) ;
#169 = SECURITY_CLASSIFICATION_LEVEL ( 'unclassified' ) ;
#170 = LOCAL_TIME ( 13, 2, 33.00000000000000000, #236 ) ;
#171 = EDGE_LOOP ( 'NONE', ( #151, #32, #246, #31 ) ) ;
#172 = APPROVAL_DATE_TIME ( #205, #104 ) ;
#173 = ORIENTED_EDGE ( 'NONE', *, *, #46, .F. ) ;
#174 = FACE_OUTER_BOUND ( 'NONE', #126, .T. ) ;
#175 = DIRECTION ( 'NONE',  ( 1.000000000000000000, 0.000000000000000000, 0.000000000000000000 ) ) ;
#176 = EDGE_CURVE ( 'NONE', #79, #75, #10, .T. ) ;
#177 = DIRECTION ( 'NONE',  ( 1.000000000000000000, 0.000000000000000000, 0.000000000000000000 ) ) ;
#178 = ORIENTED_EDGE ( 'NONE', *, *, #251, .T. ) ;
#179 = FACE_BOUND ( 'NONE', #129, .T. ) ;
#180 = PRODUCT_DEFINITION ( 'NEZNÁMÝ', '', #239, #226 ) ;
#181 = DIRECTION ( 'NONE',  ( 0.000000000000000000, 0.000000000000000000, 1.000000000000000000 ) ) ;
#182 = PERSON_AND_ORGANIZATION ( #74, #15 ) ;
#183 = APPROVAL_PERSON_ORGANIZATION ( #105, #135, #146 ) ;
#184 = CALENDAR_DATE ( 2023, 12, 2 ) ;
#185 = CC_DESIGN_PERSON_AND_ORGANIZATION_ASSIGNMENT ( #89, #47, ( #239 ) ) ;
#186 = EDGE_LOOP ( 'NONE', ( #92, #107, #149, #173 ) ) ;
#187 = CALENDAR_DATE ( 2023, 12, 2 ) ;
#188 = VERTEX_POINT ( 'NONE', #23 ) ;
#189 = ORIENTED_EDGE ( 'NONE', *, *, #46, .T. ) ;
#190 = CC_DESIGN_PERSON_AND_ORGANIZATION_ASSIGNMENT ( #66, #11, ( #147 ) ) ;
#191 = CARTESIAN_POINT ( 'NONE',  ( 4.000000000000000000, 4.898587196589412829E-16, 3.000000000000000000 ) ) ;
#192 = CARTESIAN_POINT ( 'NONE',  ( -2.000000000000000000, 0.000000000000000000, 200.0000000000000000 ) ) ;
#193 = APPROVAL_PERSON_ORGANIZATION ( #86, #104, #163 ) ;
#194 = CYLINDRICAL_SURFACE ( 'NONE', #72, 2.000000000000000000 ) ;
#195 = DIRECTION ( 'NONE',  ( 1.000000000000000000, 0.000000000000000000, -0.000000000000000000 ) ) ;
#196 = DIRECTION ( 'NONE',  ( 0.000000000000000000, 0.000000000000000000, 1.000000000000000000 ) ) ;
#197 = DIRECTION ( 'NONE',  ( 1.000000000000000000, 0.000000000000000000, 0.000000000000000000 ) ) ;
#198 = CLOSED_SHELL ( 'NONE', ( #90, #230, #71, #77, #109, #18, #62 ) ) ;
#199 = CALENDAR_DATE ( 2023, 12, 2 ) ;
#200 = PERSON_AND_ORGANIZATION_ROLE ( 'creator' ) ;
#201 = CC_DESIGN_PERSON_AND_ORGANIZATION_ASSIGNMENT ( #168, #200, ( #180 ) ) ;
#202 =( NAMED_UNIT ( * ) PLANE_ANGLE_UNIT ( ) SI_UNIT ( $, .RADIAN. ) );
#203 = LOCAL_TIME ( 13, 2, 33.00000000000000000, #143 ) ;
#204 = ORIENTED_EDGE ( 'NONE', *, *, #114, .T. ) ;
#205 = DATE_AND_TIME ( #123, #170 ) ;
#206 = ORIENTED_EDGE ( 'NONE', *, *, #210, .T. ) ;
#207 = DATE_TIME_ROLE ( 'classification_date' ) ;
#208 = CIRCLE ( 'NONE', #128, 4.000000000000000000 ) ;
#209 = AXIS2_PLACEMENT_3D ( 'NONE', #115, #57, #224 ) ;
#210 = EDGE_CURVE ( 'NONE', #75, #79, #136, .T. ) ;
#211 = UNCERTAINTY_MEASURE_WITH_UNIT (LENGTH_MEASURE( 1.000000000000000082E-05 ), #237, 'distance_accuracy_value', 'NONE');
#212 = DIRECTION ( 'NONE',  ( 0.000000000000000000, 0.000000000000000000, 1.000000000000000000 ) ) ;
#213 = DIRECTION ( 'NONE',  ( -0.000000000000000000, -0.000000000000000000, -1.000000000000000000 ) ) ;
#214 = CARTESIAN_POINT ( 'NONE',  ( -2.000000000000000000, 0.000000000000000000, 3.000000000000000000 ) ) ;
#215 = CARTESIAN_POINT ( 'NONE',  ( 0.000000000000000000, 0.000000000000000000, 200.0000000000000000 ) ) ;
#216 = CC_DESIGN_DATE_AND_TIME_ASSIGNMENT ( #1, #38, ( #180 ) ) ;
#217 = FACE_OUTER_BOUND ( 'NONE', #242, .T. ) ;
#218 = DIRECTION ( 'NONE',  ( 0.000000000000000000, 0.000000000000000000, 1.000000000000000000 ) ) ;
#219 = DIRECTION ( 'NONE',  ( 1.000000000000000000, 0.000000000000000000, 0.000000000000000000 ) ) ;
#220 = ORIENTED_EDGE ( 'NONE', *, *, #166, .F. ) ;
#221 = EDGE_CURVE ( 'NONE', #79, #27, #164, .T. ) ;
#222 = AXIS2_PLACEMENT_3D ( 'NONE', #158, #134, #160 ) ;
#223 = VERTEX_POINT ( 'NONE', #240 ) ;
#224 = DIRECTION ( 'NONE',  ( 1.000000000000000000, 0.000000000000000000, 0.000000000000000000 ) ) ;
#225 = CIRCLE ( 'NONE', #232, 4.000000000000000000 ) ;
#226 = DESIGN_CONTEXT ( 'detailed design', #51, 'design' ) ;
#227 = CARTESIAN_POINT ( 'NONE',  ( 0.000000000000000000, 0.000000000000000000, 200.0000000000000000 ) ) ;
#228 = FACE_OUTER_BOUND ( 'NONE', #155, .T. ) ;
#229 = CC_DESIGN_SECURITY_CLASSIFICATION ( #147, ( #239 ) ) ;
#230 = ADVANCED_FACE ( 'NONE', ( #87 ), #61, .T. ) ;
#231 = CARTESIAN_POINT ( 'NONE',  ( 2.000000000000000000, 2.449293598294706414E-16, 3.000000000000000000 ) ) ;
#232 = AXIS2_PLACEMENT_3D ( 'NONE', #153, #33, #177 ) ;
#233 = FACE_OUTER_BOUND ( 'NONE', #186, .T. ) ;
#234 = DIRECTION ( 'NONE',  ( -0.000000000000000000, -0.000000000000000000, -1.000000000000000000 ) ) ;
#235 = CC_DESIGN_PERSON_AND_ORGANIZATION_ASSIGNMENT ( #28, #8, ( #239 ) ) ;
#236 = COORDINATED_UNIVERSAL_TIME_OFFSET ( 1, 0, .AHEAD. ) ;
#237 =( LENGTH_UNIT ( ) NAMED_UNIT ( * ) SI_UNIT ( .MILLI., .METRE. ) );
#238 = MECHANICAL_CONTEXT ( 'NONE', #39, 'mechanical' ) ;
#239 = PRODUCT_DEFINITION_FORMATION_WITH_SPECIFIED_SOURCE ( 'LIBOVOLNÝ', '', #30, .NOT_KNOWN. ) ;
#240 = CARTESIAN_POINT ( 'NONE',  ( 4.000000000000000000, 4.898587196589412829E-16, 0.000000000000000000 ) ) ;
#241 = COORDINATED_UNIVERSAL_TIME_OFFSET ( 1, 0, .AHEAD. ) ;
#242 = EDGE_LOOP ( 'NONE', ( #127, #70 ) ) ;
#243 = APPROVAL ( #5, 'NEURÈENÝ' ) ;
#244 = CC_DESIGN_APPROVAL ( #135, ( #147 ) ) ;
#245 = ORIENTED_EDGE ( 'NONE', *, *, #166, .T. ) ;
#246 = ORIENTED_EDGE ( 'NONE', *, *, #53, .T. ) ;
#247 = AXIS2_PLACEMENT_3D ( 'NONE', #250, #56, #132 ) ;
#248 = CARTESIAN_POINT ( 'NONE',  ( 0.000000000000000000, 0.000000000000000000, 0.000000000000000000 ) ) ;
#249 = LINE ( 'NONE', #78, #144 ) ;
#250 = CARTESIAN_POINT ( 'NONE',  ( 0.000000000000000000, 0.000000000000000000, 3.000000000000000000 ) ) ;
#251 = EDGE_CURVE ( 'NONE', #150, #50, #152, .T. ) ;
#252 = DIRECTION ( 'NONE',  ( 1.000000000000000000, 0.000000000000000000, -0.000000000000000000 ) ) ;
#253 = AXIS2_PLACEMENT_3D ( 'NONE', #161, #218, #219 ) ;
#254 = CARTESIAN_POINT ( 'NONE',  ( 0.000000000000000000, 0.000000000000000000, 3.000000000000000000 ) ) ;
#255 = EDGE_CURVE ( 'NONE', #50, #150, #208, .T. ) ;
ENDSEC;
END-ISO-10303-21;
