ISO-10303-21;
HEADER;
FILE_DESCRIPTION (( 'STEP AP203' ),
    '1' );
FILE_NAME ('88ae.STEP',
    '2023-02-12T10:47:51',
    ( '' ),
    ( '' ),
    'SwSTEP 2.0',
    'SolidWorks 2019',
    '' );
FILE_SCHEMA (( 'CONFIG_CONTROL_DESIGN' ));
ENDSEC;

DATA;
#1 = UNCERTAINTY_MEASURE_WITH_UNIT (LENGTH_MEASURE( 1.000000000000000082E-05 ), #199, 'distance_accuracy_value', 'NONE');
#2 = CARTESIAN_POINT ( 'NONE',  ( 0.000000000000000000, 0.000000000000000000, 200.0000000000000000 ) ) ;
#3 = FACE_OUTER_BOUND ( 'NONE', #121, .T. ) ;
#4 = AXIS2_PLACEMENT_3D ( 'NONE', #62, #138, #160 ) ;
#5 = DIRECTION ( 'NONE',  ( 0.000000000000000000, 0.000000000000000000, 1.000000000000000000 ) ) ;
#6 = DIRECTION ( 'NONE',  ( 1.000000000000000000, 0.000000000000000000, 0.000000000000000000 ) ) ;
#7 = APPROVAL_STATUS ( 'not_yet_approved' ) ;
#8 = AXIS2_PLACEMENT_3D ( 'NONE', #59, #41, #91 ) ;
#9 =( NAMED_UNIT ( * ) SI_UNIT ( $, .STERADIAN. ) SOLID_ANGLE_UNIT ( ) );
#10 = EDGE_CURVE ( 'NONE', #162, #248, #78, .T. ) ;
#11 = AXIS2_PLACEMENT_3D ( 'NONE', #224, #67, #50 ) ;
#12 = EDGE_CURVE ( 'NONE', #73, #89, #75, .T. ) ;
#13 = ORIENTED_EDGE ( 'NONE', *, *, #142, .F. ) ;
#14 = ORIENTED_EDGE ( 'NONE', *, *, #12, .F. ) ;
#15 = CC_DESIGN_APPROVAL ( #176, ( #124 ) ) ;
#16 = VERTEX_POINT ( 'NONE', #79 ) ;
#17 = DIRECTION ( 'NONE',  ( 1.000000000000000000, 0.000000000000000000, -0.000000000000000000 ) ) ;
#18 = DIRECTION ( 'NONE',  ( 0.000000000000000000, 0.000000000000000000, 1.000000000000000000 ) ) ;
#19 = CIRCLE ( 'NONE', #158, 11.00000000000000000 ) ;
#20 = DIRECTION ( 'NONE',  ( 0.000000000000000000, 0.000000000000000000, 1.000000000000000000 ) ) ;
#21 = ADVANCED_FACE ( 'NONE', ( #56 ), #174, .T. ) ;
#22 = DIRECTION ( 'NONE',  ( -0.000000000000000000, -0.000000000000000000, -1.000000000000000000 ) ) ;
#23 = DIRECTION ( 'NONE',  ( -0.000000000000000000, -0.000000000000000000, -1.000000000000000000 ) ) ;
#24 = CARTESIAN_POINT ( 'NONE',  ( 0.000000000000000000, 0.000000000000000000, 200.0000000000000000 ) ) ;
#25 = CC_DESIGN_SECURITY_CLASSIFICATION ( #114, ( #124 ) ) ;
#26 = PRODUCT_DEFINITION ( 'NEZNÁMÝ', '', #124, #213 ) ;
#27 = PLANE ( 'NONE',  #4 ) ;
#28 = CARTESIAN_POINT ( 'NONE',  ( 11.00000000000000000, 1.347111479062088405E-15, 7.000000000000000000 ) ) ;
#29 =( GEOMETRIC_REPRESENTATION_CONTEXT ( 3 ) GLOBAL_UNCERTAINTY_ASSIGNED_CONTEXT ( ( #1 ) ) GLOBAL_UNIT_ASSIGNED_CONTEXT ( ( #199, #80, #9 ) ) REPRESENTATION_CONTEXT ( 'NONE', 'WORKASPACE' ) );
#30 = DIRECTION ( 'NONE',  ( -0.000000000000000000, -0.000000000000000000, -1.000000000000000000 ) ) ;
#31 = COORDINATED_UNIVERSAL_TIME_OFFSET ( 1, 0, .AHEAD. ) ;
#32 = ORIENTED_EDGE ( 'NONE', *, *, #223, .T. ) ;
#33 = CALENDAR_DATE ( 2023, 12, 2 ) ;
#34 = VERTEX_POINT ( 'NONE', #42 ) ;
#35 = ORIENTED_EDGE ( 'NONE', *, *, #69, .F. ) ;
#36 = ORIENTED_EDGE ( 'NONE', *, *, #152, .F. ) ;
#37 = PLANE ( 'NONE',  #87 ) ;
#38 = CC_DESIGN_DATE_AND_TIME_ASSIGNMENT ( #70, #232, ( #114 ) ) ;
#39 = AXIS2_PLACEMENT_3D ( 'NONE', #97, #30, #179 ) ;
#40 = DIRECTION ( 'NONE',  ( -1.000000000000000000, 0.000000000000000000, 0.000000000000000000 ) ) ;
#41 = DIRECTION ( 'NONE',  ( 0.000000000000000000, 0.000000000000000000, 1.000000000000000000 ) ) ;
#42 = CARTESIAN_POINT ( 'NONE',  ( 11.00000000000000000, 1.347111479062088405E-15, 7.000000000000000000 ) ) ;
#43 = PERSON_AND_ORGANIZATION ( #66, #104 ) ;
#44 = LOCAL_TIME ( 11, 47, 51.00000000000000000, #148 ) ;
#45 = PERSON_AND_ORGANIZATION ( #66, #104 ) ;
#46 = LINE ( 'NONE', #28, #55 ) ;
#47 = CIRCLE ( 'NONE', #60, 7.000000000000000000 ) ;
#48 = APPROVAL_PERSON_ORGANIZATION ( #140, #198, #53 ) ;
#49 = APPLICATION_CONTEXT ( 'configuration controlled 3d designs of mechanical parts and assemblies' ) ;
#50 = DIRECTION ( 'NONE',  ( 1.000000000000000000, 0.000000000000000000, 0.000000000000000000 ) ) ;
#51 = ORIENTED_EDGE ( 'NONE', *, *, #58, .F. ) ;
#52 = CALENDAR_DATE ( 2023, 12, 2 ) ;
#53 = APPROVAL_ROLE ( '' ) ;
#54 = PERSON_AND_ORGANIZATION ( #66, #104 ) ;
#55 = VECTOR ( 'NONE', #157, 1000.000000000000000 ) ;
#56 = FACE_OUTER_BOUND ( 'NONE', #204, .T. ) ;
#57 = FACE_OUTER_BOUND ( 'NONE', #249, .T. ) ;
#58 = EDGE_CURVE ( 'NONE', #74, #89, #181, .T. ) ;
#59 = CARTESIAN_POINT ( 'NONE',  ( 0.000000000000000000, 0.000000000000000000, 7.000000000000000000 ) ) ;
#60 = AXIS2_PLACEMENT_3D ( 'NONE', #77, #150, #236 ) ;
#61 = DIRECTION ( 'NONE',  ( -0.000000000000000000, -0.000000000000000000, -1.000000000000000000 ) ) ;
#62 = CARTESIAN_POINT ( 'NONE',  ( 0.000000000000000000, 0.000000000000000000, 0.000000000000000000 ) ) ;
#63 = CARTESIAN_POINT ( 'NONE',  ( -11.00000000000000000, 0.000000000000000000, 0.000000000000000000 ) ) ;
#64 = DATE_AND_TIME ( #242, #167 ) ;
#65 = EDGE_CURVE ( 'NONE', #209, #74, #155, .T. ) ;
#66 = PERSON ( 'NEURÈENÝ', 'NEURÈENÝ', 'NEURÈENÝ', ('NEURÈENÝ'), ('NEURÈENÝ'), ('NEURÈENÝ') ) ;
#67 = DIRECTION ( 'NONE',  ( 0.000000000000000000, 0.000000000000000000, 1.000000000000000000 ) ) ;
#68 = AXIS2_PLACEMENT_3D ( 'NONE', #251, #234, #129 ) ;
#69 = EDGE_CURVE ( 'NONE', #16, #248, #134, .T. ) ;
#70 = DATE_AND_TIME ( #33, #154 ) ;
#71 = ORIENTED_EDGE ( 'NONE', *, *, #163, .T. ) ;
#72 = EDGE_LOOP ( 'NONE', ( #107, #51 ) ) ;
#73 = VERTEX_POINT ( 'NONE', #190 ) ;
#74 = VERTEX_POINT ( 'NONE', #149 ) ;
#75 = LINE ( 'NONE', #133, #108 ) ;
#76 = CC_DESIGN_PERSON_AND_ORGANIZATION_ASSIGNMENT ( #54, #229, ( #124 ) ) ;
#77 = CARTESIAN_POINT ( 'NONE',  ( 0.000000000000000000, 0.000000000000000000, 7.000000000000000000 ) ) ;
#78 = LINE ( 'NONE', #109, #222 ) ;
#79 = CARTESIAN_POINT ( 'NONE',  ( 11.00000000000000000, 1.347111479062088405E-15, 0.000000000000000000 ) ) ;
#80 =( NAMED_UNIT ( * ) PLANE_ANGLE_UNIT ( ) SI_UNIT ( $, .RADIAN. ) );
#81 = FACE_OUTER_BOUND ( 'NONE', #187, .T. ) ;
#82 = APPROVAL_ROLE ( '' ) ;
#83 = APPROVAL ( #7, 'NEURÈENÝ' ) ;
#84 = CARTESIAN_POINT ( 'NONE',  ( 0.000000000000000000, 0.000000000000000000, 0.000000000000000000 ) ) ;
#85 = PERSON_AND_ORGANIZATION_ROLE ( 'creator' ) ;
#86 = ORIENTED_EDGE ( 'NONE', *, *, #12, .T. ) ;
#87 = AXIS2_PLACEMENT_3D ( 'NONE', #110, #20, #94 ) ;
#88 = CALENDAR_DATE ( 2023, 12, 2 ) ;
#89 = VERTEX_POINT ( 'NONE', #95 ) ;
#90 = AXIS2_PLACEMENT_3D ( 'NONE', #24, #239, #118 ) ;
#91 = DIRECTION ( 'NONE',  ( 1.000000000000000000, 0.000000000000000000, 0.000000000000000000 ) ) ;
#92 = CARTESIAN_POINT ( 'NONE',  ( 0.000000000000000000, 0.000000000000000000, 7.000000000000000000 ) ) ;
#93 = CIRCLE ( 'NONE', #68, 11.00000000000000000 ) ;
#94 = DIRECTION ( 'NONE',  ( 1.000000000000000000, 0.000000000000000000, -0.000000000000000000 ) ) ;
#95 = CARTESIAN_POINT ( 'NONE',  ( -7.000000000000000000, 0.000000000000000000, 7.000000000000000000 ) ) ;
#96 = CC_DESIGN_APPROVAL ( #83, ( #26 ) ) ;
#97 = CARTESIAN_POINT ( 'NONE',  ( 0.000000000000000000, 0.000000000000000000, 7.000000000000000000 ) ) ;
#98 = APPLICATION_PROTOCOL_DEFINITION ( 'international standard', 'config_control_design', 1994, #49 ) ;
#99 = DIRECTION ( 'NONE',  ( 0.000000000000000000, 0.000000000000000000, 1.000000000000000000 ) ) ;
#100 = AXIS2_PLACEMENT_3D ( 'NONE', #135, #99, #220 ) ;
#101 = CYLINDRICAL_SURFACE ( 'NONE', #39, 11.00000000000000000 ) ;
#102 = APPROVAL_DATE_TIME ( #139, #176 ) ;
#103 = COORDINATED_UNIVERSAL_TIME_OFFSET ( 1, 0, .AHEAD. ) ;
#104 = ORGANIZATION ( 'NEURÈENÝ', 'NEURÈENÝ', '' ) ;
#105 = PRODUCT_RELATED_PRODUCT_CATEGORY ( 'detail', '', ( #168 ) ) ;
#106 = ORIENTED_EDGE ( 'NONE', *, *, #10, .F. ) ;
#107 = ORIENTED_EDGE ( 'NONE', *, *, #163, .F. ) ;
#108 = VECTOR ( 'NONE', #23, 1000.000000000000000 ) ;
#109 = CARTESIAN_POINT ( 'NONE',  ( -11.00000000000000000, 0.000000000000000000, 7.000000000000000000 ) ) ;
#110 = CARTESIAN_POINT ( 'NONE',  ( 0.000000000000000000, 0.000000000000000000, 7.000000000000000000 ) ) ;
#111 = EDGE_LOOP ( 'NONE', ( #36, #166, #146, #106 ) ) ;
#112 = DIRECTION ( 'NONE',  ( -0.000000000000000000, -0.000000000000000000, -1.000000000000000000 ) ) ;
#113 = CARTESIAN_POINT ( 'NONE',  ( 0.000000000000000000, 0.000000000000000000, 7.000000000000000000 ) ) ;
#114 = SECURITY_CLASSIFICATION ( '', '', #183 ) ;
#115 = PERSON_AND_ORGANIZATION_ROLE ( 'design_owner' ) ;
#116 = CC_DESIGN_PERSON_AND_ORGANIZATION_ASSIGNMENT ( #203, #85, ( #124 ) ) ;
#117 = PERSON_AND_ORGANIZATION_ROLE ( 'creator' ) ;
#118 = DIRECTION ( 'NONE',  ( 1.000000000000000000, 0.000000000000000000, 0.000000000000000000 ) ) ;
#119 = LOCAL_TIME ( 11, 47, 51.00000000000000000, #122 ) ;
#120 = DATE_AND_TIME ( #88, #44 ) ;
#121 = EDGE_LOOP ( 'NONE', ( #126, #188 ) ) ;
#122 = COORDINATED_UNIVERSAL_TIME_OFFSET ( 1, 0, .AHEAD. ) ;
#123 = ORIENTED_EDGE ( 'NONE', *, *, #219, .F. ) ;
#124 = PRODUCT_DEFINITION_FORMATION_WITH_SPECIFIED_SOURCE ( 'LIBOVOLNÝ', '', #168, .NOT_KNOWN. ) ;
#125 = CC_DESIGN_PERSON_AND_ORGANIZATION_ASSIGNMENT ( #225, #169, ( #114 ) ) ;
#126 = ORIENTED_EDGE ( 'NONE', *, *, #250, .T. ) ;
#127 = EDGE_LOOP ( 'NONE', ( #123, #13, #207, #32 ) ) ;
#128 = CC_DESIGN_APPROVAL ( #198, ( #114 ) ) ;
#129 = DIRECTION ( 'NONE',  ( 1.000000000000000000, 0.000000000000000000, 0.000000000000000000 ) ) ;
#130 = CARTESIAN_POINT ( 'NONE',  ( 0.000000000000000000, 0.000000000000000000, 0.000000000000000000 ) ) ;
#131 = DIRECTION ( 'NONE',  ( 1.000000000000000000, 0.000000000000000000, 0.000000000000000000 ) ) ;
#132 = CC_DESIGN_DATE_AND_TIME_ASSIGNMENT ( #120, #164, ( #26 ) ) ;
#133 = CARTESIAN_POINT ( 'NONE',  ( -7.000000000000000000, 0.000000000000000000, 200.0000000000000000 ) ) ;
#134 = CIRCLE ( 'NONE', #144, 11.00000000000000000 ) ;
#135 = CARTESIAN_POINT ( 'NONE',  ( 0.000000000000000000, 0.000000000000000000, 200.0000000000000000 ) ) ;
#136 = APPROVAL_DATE_TIME ( #64, #83 ) ;
#137 = VECTOR ( 'NONE', #112, 1000.000000000000000 ) ;
#138 = DIRECTION ( 'NONE',  ( 0.000000000000000000, 0.000000000000000000, 1.000000000000000000 ) ) ;
#139 = DATE_AND_TIME ( #186, #119 ) ;
#140 = PERSON_AND_ORGANIZATION ( #66, #104 ) ;
#141 = ORIENTED_EDGE ( 'NONE', *, *, #65, .T. ) ;
#142 = EDGE_CURVE ( 'NONE', #162, #34, #19, .T. ) ;
#143 = ORIENTED_EDGE ( 'NONE', *, *, #142, .T. ) ;
#144 = AXIS2_PLACEMENT_3D ( 'NONE', #130, #195, #131 ) ;
#145 = SHAPE_DEFINITION_REPRESENTATION ( #235, #255 ) ;
#146 = ORIENTED_EDGE ( 'NONE', *, *, #69, .T. ) ;
#147 = ADVANCED_FACE ( 'NONE', ( #3 ), #214, .T. ) ;
#148 = COORDINATED_UNIVERSAL_TIME_OFFSET ( 1, 0, .AHEAD. ) ;
#149 = CARTESIAN_POINT ( 'NONE',  ( 7.000000000000000000, 8.572527594031473190E-16, 7.000000000000000000 ) ) ;
#150 = DIRECTION ( 'NONE',  ( 0.000000000000000000, 0.000000000000000000, 1.000000000000000000 ) ) ;
#151 = CARTESIAN_POINT ( 'NONE',  ( 0.000000000000000000, 0.000000000000000000, 200.0000000000000000 ) ) ;
#152 = EDGE_CURVE ( 'NONE', #34, #162, #93, .T. ) ;
#153 = CARTESIAN_POINT ( 'NONE',  ( 7.000000000000000000, 8.572527594031473190E-16, 200.0000000000000000 ) ) ;
#154 = LOCAL_TIME ( 11, 47, 51.00000000000000000, #31 ) ;
#155 = LINE ( 'NONE', #153, #137 ) ;
#156 = MECHANICAL_CONTEXT ( 'NONE', #202, 'mechanical' ) ;
#157 = DIRECTION ( 'NONE',  ( -0.000000000000000000, -0.000000000000000000, -1.000000000000000000 ) ) ;
#158 = AXIS2_PLACEMENT_3D ( 'NONE', #113, #175, #170 ) ;
#159 = COORDINATED_UNIVERSAL_TIME_OFFSET ( 1, 0, .AHEAD. ) ;
#160 = DIRECTION ( 'NONE',  ( 1.000000000000000000, 0.000000000000000000, -0.000000000000000000 ) ) ;
#161 = ADVANCED_FACE ( 'NONE', ( #215 ), #212, .T. ) ;
#162 = VERTEX_POINT ( 'NONE', #253 ) ;
#163 = EDGE_CURVE ( 'NONE', #89, #74, #47, .T. ) ;
#164 = DATE_TIME_ROLE ( 'creation_date' ) ;
#165 = ORIENTED_EDGE ( 'NONE', *, *, #240, .F. ) ;
#166 = ORIENTED_EDGE ( 'NONE', *, *, #219, .T. ) ;
#167 = LOCAL_TIME ( 11, 47, 51.00000000000000000, #159 ) ;
#168 = PRODUCT ( '88ae', '88ae', '', ( #156 ) ) ;
#169 = PERSON_AND_ORGANIZATION_ROLE ( 'classification_officer' ) ;
#170 = DIRECTION ( 'NONE',  ( 1.000000000000000000, 0.000000000000000000, 0.000000000000000000 ) ) ;
#171 = DIRECTION ( 'NONE',  ( -0.000000000000000000, -0.000000000000000000, -1.000000000000000000 ) ) ;
#172 = ADVANCED_FACE ( 'NONE', ( #192, #57 ), #37, .T. ) ;
#173 = FACE_OUTER_BOUND ( 'NONE', #230, .T. ) ;
#174 = CYLINDRICAL_SURFACE ( 'NONE', #243, 7.000000000000000000 ) ;
#175 = DIRECTION ( 'NONE',  ( 0.000000000000000000, 0.000000000000000000, 1.000000000000000000 ) ) ;
#176 = APPROVAL ( #208, 'NEURÈENÝ' ) ;
#177 = APPROVAL_PERSON_ORGANIZATION ( #197, #83, #82 ) ;
#178 = CARTESIAN_POINT ( 'NONE',  ( 7.000000000000000000, 8.572527594031473190E-16, 200.0000000000000000 ) ) ;
#179 = DIRECTION ( 'NONE',  ( -1.000000000000000000, 0.000000000000000000, 0.000000000000000000 ) ) ;
#180 = DIRECTION ( 'NONE',  ( -1.000000000000000000, 0.000000000000000000, 0.000000000000000000 ) ) ;
#181 = CIRCLE ( 'NONE', #8, 7.000000000000000000 ) ;
#182 = CC_DESIGN_PERSON_AND_ORGANIZATION_ASSIGNMENT ( #45, #117, ( #26 ) ) ;
#183 = SECURITY_CLASSIFICATION_LEVEL ( 'unclassified' ) ;
#184 = ORIENTED_EDGE ( 'NONE', *, *, #223, .F. ) ;
#185 = MANIFOLD_SOLID_BREP ( 'Pøidat vysunutím3', #246 ) ;
#186 = CALENDAR_DATE ( 2023, 12, 2 ) ;
#187 = EDGE_LOOP ( 'NONE', ( #184, #35 ) ) ;
#188 = ORIENTED_EDGE ( 'NONE', *, *, #240, .T. ) ;
#189 = ORIENTED_EDGE ( 'NONE', *, *, #65, .F. ) ;
#190 = CARTESIAN_POINT ( 'NONE',  ( -7.000000000000000000, 0.000000000000000000, 200.0000000000000000 ) ) ;
#191 = ADVANCED_FACE ( 'NONE', ( #173 ), #254, .T. ) ;
#192 = FACE_BOUND ( 'NONE', #72, .T. ) ;
#193 = APPROVAL_PERSON_ORGANIZATION ( #244, #176, #206 ) ;
#194 = CARTESIAN_POINT ( 'NONE',  ( 0.000000000000000000, 0.000000000000000000, 200.0000000000000000 ) ) ;
#195 = DIRECTION ( 'NONE',  ( 0.000000000000000000, 0.000000000000000000, 1.000000000000000000 ) ) ;
#196 = APPLICATION_PROTOCOL_DEFINITION ( 'international standard', 'config_control_design', 1994, #202 ) ;
#197 = PERSON_AND_ORGANIZATION ( #66, #104 ) ;
#198 = APPROVAL ( #227, 'NEURÈENÝ' ) ;
#199 =( LENGTH_UNIT ( ) NAMED_UNIT ( * ) SI_UNIT ( .MILLI., .METRE. ) );
#200 = DATE_AND_TIME ( #52, #210 ) ;
#201 = ADVANCED_FACE ( 'NONE', ( #221 ), #101, .T. ) ;
#202 = APPLICATION_CONTEXT ( 'configuration controlled 3d designs of mechanical parts and assemblies' ) ;
#203 = PERSON_AND_ORGANIZATION ( #66, #104 ) ;
#204 = EDGE_LOOP ( 'NONE', ( #165, #141, #211, #14 ) ) ;
#205 = AXIS2_PLACEMENT_3D ( 'NONE', #84, #5, #6 ) ;
#206 = APPROVAL_ROLE ( '' ) ;
#207 = ORIENTED_EDGE ( 'NONE', *, *, #10, .T. ) ;
#208 = APPROVAL_STATUS ( 'not_yet_approved' ) ;
#209 = VERTEX_POINT ( 'NONE', #178 ) ;
#210 = LOCAL_TIME ( 11, 47, 51.00000000000000000, #103 ) ;
#211 = ORIENTED_EDGE ( 'NONE', *, *, #58, .T. ) ;
#212 = CYLINDRICAL_SURFACE ( 'NONE', #218, 11.00000000000000000 ) ;
#213 = DESIGN_CONTEXT ( 'detailed design', #49, 'design' ) ;
#214 = PLANE ( 'NONE',  #252 ) ;
#215 = FACE_OUTER_BOUND ( 'NONE', #127, .T. ) ;
#216 = DIRECTION ( 'NONE',  ( -1.000000000000000000, 0.000000000000000000, 0.000000000000000000 ) ) ;
#217 = DIRECTION ( 'NONE',  ( -0.000000000000000000, -0.000000000000000000, -1.000000000000000000 ) ) ;
#218 = AXIS2_PLACEMENT_3D ( 'NONE', #92, #171, #40 ) ;
#219 = EDGE_CURVE ( 'NONE', #34, #16, #46, .T. ) ;
#220 = DIRECTION ( 'NONE',  ( 1.000000000000000000, 0.000000000000000000, 0.000000000000000000 ) ) ;
#221 = FACE_OUTER_BOUND ( 'NONE', #111, .T. ) ;
#222 = VECTOR ( 'NONE', #217, 1000.000000000000000 ) ;
#223 = EDGE_CURVE ( 'NONE', #248, #16, #241, .T. ) ;
#224 = CARTESIAN_POINT ( 'NONE',  ( 0.000000000000000000, 0.000000000000000000, 0.000000000000000000 ) ) ;
#225 = PERSON_AND_ORGANIZATION ( #66, #104 ) ;
#226 = ORIENTED_EDGE ( 'NONE', *, *, #152, .T. ) ;
#227 = APPROVAL_STATUS ( 'not_yet_approved' ) ;
#228 = CIRCLE ( 'NONE', #90, 7.000000000000000000 ) ;
#229 = PERSON_AND_ORGANIZATION_ROLE ( 'design_supplier' ) ;
#230 = EDGE_LOOP ( 'NONE', ( #189, #237, #86, #71 ) ) ;
#231 = ADVANCED_FACE ( 'NONE', ( #81 ), #27, .F. ) ;
#232 = DATE_TIME_ROLE ( 'classification_date' ) ;
#233 = AXIS2_PLACEMENT_3D ( 'NONE', #151, #22, #180 ) ;
#234 = DIRECTION ( 'NONE',  ( 0.000000000000000000, 0.000000000000000000, 1.000000000000000000 ) ) ;
#235 = PRODUCT_DEFINITION_SHAPE ( 'NONE', 'NONE',  #26 ) ;
#236 = DIRECTION ( 'NONE',  ( 1.000000000000000000, 0.000000000000000000, 0.000000000000000000 ) ) ;
#237 = ORIENTED_EDGE ( 'NONE', *, *, #250, .F. ) ;
#238 = CIRCLE ( 'NONE', #100, 7.000000000000000000 ) ;
#239 = DIRECTION ( 'NONE',  ( 0.000000000000000000, 0.000000000000000000, 1.000000000000000000 ) ) ;
#240 = EDGE_CURVE ( 'NONE', #209, #73, #228, .T. ) ;
#241 = CIRCLE ( 'NONE', #205, 11.00000000000000000 ) ;
#242 = CALENDAR_DATE ( 2023, 12, 2 ) ;
#243 = AXIS2_PLACEMENT_3D ( 'NONE', #2, #61, #216 ) ;
#244 = PERSON_AND_ORGANIZATION ( #66, #104 ) ;
#245 = CC_DESIGN_PERSON_AND_ORGANIZATION_ASSIGNMENT ( #43, #115, ( #168 ) ) ;
#246 = CLOSED_SHELL ( 'NONE', ( #21, #201, #161, #172, #231, #191, #147 ) ) ;
#247 = APPROVAL_DATE_TIME ( #200, #198 ) ;
#248 = VERTEX_POINT ( 'NONE', #63 ) ;
#249 = EDGE_LOOP ( 'NONE', ( #143, #226 ) ) ;
#250 = EDGE_CURVE ( 'NONE', #73, #209, #238, .T. ) ;
#251 = CARTESIAN_POINT ( 'NONE',  ( 0.000000000000000000, 0.000000000000000000, 7.000000000000000000 ) ) ;
#252 = AXIS2_PLACEMENT_3D ( 'NONE', #194, #18, #17 ) ;
#253 = CARTESIAN_POINT ( 'NONE',  ( -11.00000000000000000, 0.000000000000000000, 7.000000000000000000 ) ) ;
#254 = CYLINDRICAL_SURFACE ( 'NONE', #233, 7.000000000000000000 ) ;
#255 = ADVANCED_BREP_SHAPE_REPRESENTATION ( '88ae', ( #185, #11 ), #29 ) ;
ENDSEC;
END-ISO-10303-21;
