ISO-10303-21;
HEADER;
FILE_DESCRIPTION (( 'STEP AP203' ),
    '1' );
FILE_NAME ('a33d.STEP',
    '2023-02-12T10:58:43',
    ( '' ),
    ( '' ),
    'SwSTEP 2.0',
    'SolidWorks 2019',
    '' );
FILE_SCHEMA (( 'CONFIG_CONTROL_DESIGN' ));
ENDSEC;

DATA;
#1 = PERSON_AND_ORGANIZATION ( #171, #196 ) ;
#2 = COORDINATED_UNIVERSAL_TIME_OFFSET ( 1, 0, .AHEAD. ) ;
#3 = ORIENTED_EDGE ( 'NONE', *, *, #111, .T. ) ;
#4 = EDGE_CURVE ( 'NONE', #41, #238, #174, .T. ) ;
#5 = APPROVAL_DATE_TIME ( #106, #40 ) ;
#6 = CARTESIAN_POINT ( 'NONE',  ( 0.000000000000000000, 0.000000000000000000, 0.000000000000000000 ) ) ;
#7 = EDGE_LOOP ( 'NONE', ( #144, #125, #50, #224 ) ) ;
#8 = ORIENTED_EDGE ( 'NONE', *, *, #11, .F. ) ;
#9 = APPROVAL_PERSON_ORGANIZATION ( #1, #213, #141 ) ;
#10 = FACE_OUTER_BOUND ( 'NONE', #88, .T. ) ;
#11 = EDGE_CURVE ( 'NONE', #48, #238, #202, .T. ) ;
#12 = FACE_OUTER_BOUND ( 'NONE', #128, .T. ) ;
#13 = CARTESIAN_POINT ( 'NONE',  ( 0.000000000000000000, 0.000000000000000000, 315.0000000000000000 ) ) ;
#14 = CIRCLE ( 'NONE', #215, 8.000000000000000000 ) ;
#15 = CARTESIAN_POINT ( 'NONE',  ( -8.000000000000000000, 0.000000000000000000, 5.000000000000000000 ) ) ;
#16 = AXIS2_PLACEMENT_3D ( 'NONE', #157, #231, #118 ) ;
#17 = EDGE_CURVE ( 'NONE', #48, #87, #62, .T. ) ;
#18 = PERSON_AND_ORGANIZATION_ROLE ( 'design_owner' ) ;
#19 = PRODUCT_DEFINITION_FORMATION_WITH_SPECIFIED_SOURCE ( 'LIBOVOLNÝ', '', #38, .NOT_KNOWN. ) ;
#20 = LOCAL_TIME ( 11, 58, 43.00000000000000000, #240 ) ;
#21 = ORIENTED_EDGE ( 'NONE', *, *, #57, .T. ) ;
#22 = ADVANCED_FACE ( 'NONE', ( #73 ), #148, .T. ) ;
#23 = ORIENTED_EDGE ( 'NONE', *, *, #78, .T. ) ;
#24 = SECURITY_CLASSIFICATION_LEVEL ( 'unclassified' ) ;
#25 = ORIENTED_EDGE ( 'NONE', *, *, #153, .T. ) ;
#26 = ADVANCED_BREP_SHAPE_REPRESENTATION ( 'a33d', ( #61, #105 ), #225 ) ;
#27 = ORIENTED_EDGE ( 'NONE', *, *, #28, .T. ) ;
#28 = EDGE_CURVE ( 'NONE', #200, #109, #162, .T. ) ;
#29 = DIRECTION ( 'NONE',  ( 0.000000000000000000, 0.000000000000000000, 1.000000000000000000 ) ) ;
#30 = DIRECTION ( 'NONE',  ( -0.000000000000000000, -0.000000000000000000, -1.000000000000000000 ) ) ;
#31 = DIRECTION ( 'NONE',  ( -0.000000000000000000, -0.000000000000000000, -1.000000000000000000 ) ) ;
#32 = CC_DESIGN_PERSON_AND_ORGANIZATION_ASSIGNMENT ( #85, #108, ( #96 ) ) ;
#33 = CARTESIAN_POINT ( 'NONE',  ( 0.000000000000000000, 0.000000000000000000, 5.000000000000000000 ) ) ;
#34 = DIRECTION ( 'NONE',  ( 1.000000000000000000, 0.000000000000000000, -0.000000000000000000 ) ) ;
#35 = VECTOR ( 'NONE', #163, 1000.000000000000000 ) ;
#36 = DIRECTION ( 'NONE',  ( 0.000000000000000000, 0.000000000000000000, 1.000000000000000000 ) ) ;
#37 = ADVANCED_FACE ( 'NONE', ( #187, #94 ), #133, .T. ) ;
#38 = PRODUCT ( 'a33d', 'a33d', '', ( #47 ) ) ;
#39 = PERSON_AND_ORGANIZATION ( #171, #196 ) ;
#40 = APPROVAL ( #145, 'NEURÈENÝ' ) ;
#41 = VERTEX_POINT ( 'NONE', #227 ) ;
#42 = LOCAL_TIME ( 11, 58, 43.00000000000000000, #143 ) ;
#43 = CIRCLE ( 'NONE', #180, 8.000000000000000000 ) ;
#44 = CC_DESIGN_SECURITY_CLASSIFICATION ( #206, ( #19 ) ) ;
#45 = PERSON_AND_ORGANIZATION ( #171, #196 ) ;
#46 = CARTESIAN_POINT ( 'NONE',  ( 0.000000000000000000, 0.000000000000000000, 5.000000000000000000 ) ) ;
#47 = MECHANICAL_CONTEXT ( 'NONE', #195, 'mechanical' ) ;
#48 = VERTEX_POINT ( 'NONE', #99 ) ;
#49 = PERSON_AND_ORGANIZATION ( #171, #196 ) ;
#50 = ORIENTED_EDGE ( 'NONE', *, *, #233, .T. ) ;
#51 = EDGE_CURVE ( 'NONE', #223, #109, #194, .T. ) ;
#52 = DATE_AND_TIME ( #66, #69 ) ;
#53 = AXIS2_PLACEMENT_3D ( 'NONE', #158, #95, #77 ) ;
#54 = CARTESIAN_POINT ( 'NONE',  ( -5.099999999999999645, 0.000000000000000000, 315.0000000000000000 ) ) ;
#55 = CARTESIAN_POINT ( 'NONE',  ( 0.000000000000000000, 0.000000000000000000, 5.000000000000000000 ) ) ;
#56 = DIRECTION ( 'NONE',  ( -1.000000000000000000, 0.000000000000000000, 0.000000000000000000 ) ) ;
#57 = EDGE_CURVE ( 'NONE', #87, #41, #209, .T. ) ;
#58 = DIRECTION ( 'NONE',  ( 0.000000000000000000, 0.000000000000000000, 1.000000000000000000 ) ) ;
#59 = DIRECTION ( 'NONE',  ( -0.000000000000000000, -0.000000000000000000, -1.000000000000000000 ) ) ;
#60 = DIRECTION ( 'NONE',  ( -0.000000000000000000, -0.000000000000000000, -1.000000000000000000 ) ) ;
#61 = MANIFOLD_SOLID_BREP ( 'Pøidat vysunutím3', #151 ) ;
#62 = CIRCLE ( 'NONE', #214, 5.099999999999999645 ) ;
#63 = AXIS2_PLACEMENT_3D ( 'NONE', #210, #80, #56 ) ;
#64 =( NAMED_UNIT ( * ) PLANE_ANGLE_UNIT ( ) SI_UNIT ( $, .RADIAN. ) );
#65 = DIRECTION ( 'NONE',  ( -0.000000000000000000, -0.000000000000000000, -1.000000000000000000 ) ) ;
#66 = CALENDAR_DATE ( 2023, 12, 2 ) ;
#67 = EDGE_LOOP ( 'NONE', ( #92, #205 ) ) ;
#68 = CIRCLE ( 'NONE', #103, 8.000000000000000000 ) ;
#69 = LOCAL_TIME ( 11, 58, 43.00000000000000000, #164 ) ;
#70 = APPLICATION_PROTOCOL_DEFINITION ( 'international standard', 'config_control_design', 1994, #98 ) ;
#71 = ORIENTED_EDGE ( 'NONE', *, *, #222, .F. ) ;
#72 = DATE_TIME_ROLE ( 'classification_date' ) ;
#73 = FACE_OUTER_BOUND ( 'NONE', #185, .T. ) ;
#74 = DATE_AND_TIME ( #245, #20 ) ;
#75 = ORIENTED_EDGE ( 'NONE', *, *, #51, .F. ) ;
#76 = AXIS2_PLACEMENT_3D ( 'NONE', #55, #60, #190 ) ;
#77 = DIRECTION ( 'NONE',  ( 1.000000000000000000, 0.000000000000000000, 0.000000000000000000 ) ) ;
#78 = EDGE_CURVE ( 'NONE', #246, #223, #68, .T. ) ;
#79 = LINE ( 'NONE', #232, #81 ) ;
#80 = DIRECTION ( 'NONE',  ( -0.000000000000000000, -0.000000000000000000, -1.000000000000000000 ) ) ;
#81 = VECTOR ( 'NONE', #31, 1000.000000000000000 ) ;
#82 = DIRECTION ( 'NONE',  ( 1.000000000000000000, 0.000000000000000000, -0.000000000000000000 ) ) ;
#83 = CARTESIAN_POINT ( 'NONE',  ( 0.000000000000000000, 0.000000000000000000, 315.0000000000000000 ) ) ;
#84 = ADVANCED_FACE ( 'NONE', ( #10 ), #100, .T. ) ;
#85 = PERSON_AND_ORGANIZATION ( #171, #196 ) ;
#86 = COORDINATED_UNIVERSAL_TIME_OFFSET ( 1, 0, .AHEAD. ) ;
#87 = VERTEX_POINT ( 'NONE', #121 ) ;
#88 = EDGE_LOOP ( 'NONE', ( #107, #115 ) ) ;
#89 = CIRCLE ( 'NONE', #53, 5.099999999999999645 ) ;
#90 = DIRECTION ( 'NONE',  ( 1.000000000000000000, 0.000000000000000000, 0.000000000000000000 ) ) ;
#91 = ADVANCED_FACE ( 'NONE', ( #12 ), #101, .T. ) ;
#92 = ORIENTED_EDGE ( 'NONE', *, *, #28, .F. ) ;
#93 = DATE_TIME_ROLE ( 'creation_date' ) ;
#94 = FACE_OUTER_BOUND ( 'NONE', #169, .T. ) ;
#95 = DIRECTION ( 'NONE',  ( 0.000000000000000000, 0.000000000000000000, 1.000000000000000000 ) ) ;
#96 = PRODUCT_DEFINITION ( 'NEZNÁMÝ', '', #19, #132 ) ;
#97 = FACE_OUTER_BOUND ( 'NONE', #67, .T. ) ;
#98 = APPLICATION_CONTEXT ( 'configuration controlled 3d designs of mechanical parts and assemblies' ) ;
#99 = CARTESIAN_POINT ( 'NONE',  ( -5.099999999999999645, 0.000000000000000000, 315.0000000000000000 ) ) ;
#100 = PLANE ( 'NONE',  #239 ) ;
#101 = CYLINDRICAL_SURFACE ( 'NONE', #166, 5.099999999999999645 ) ;
#102 = ADVANCED_FACE ( 'NONE', ( #177 ), #175, .T. ) ;
#103 = AXIS2_PLACEMENT_3D ( 'NONE', #154, #253, #192 ) ;
#104 = APPROVAL_DATE_TIME ( #52, #213 ) ;
#105 = AXIS2_PLACEMENT_3D ( 'NONE', #235, #149, #90 ) ;
#106 = DATE_AND_TIME ( #199, #42 ) ;
#107 = ORIENTED_EDGE ( 'NONE', *, *, #17, .T. ) ;
#108 = PERSON_AND_ORGANIZATION_ROLE ( 'creator' ) ;
#109 = VERTEX_POINT ( 'NONE', #116 ) ;
#110 = CC_DESIGN_PERSON_AND_ORGANIZATION_ASSIGNMENT ( #45, #113, ( #206 ) ) ;
#111 = EDGE_CURVE ( 'NONE', #238, #41, #89, .T. ) ;
#112 = ORIENTED_EDGE ( 'NONE', *, *, #78, .F. ) ;
#113 = PERSON_AND_ORGANIZATION_ROLE ( 'classification_officer' ) ;
#114 = DIRECTION ( 'NONE',  ( -1.000000000000000000, 0.000000000000000000, 0.000000000000000000 ) ) ;
#115 = ORIENTED_EDGE ( 'NONE', *, *, #222, .T. ) ;
#116 = CARTESIAN_POINT ( 'NONE',  ( 8.000000000000000000, 9.797174393178825657E-16, 0.000000000000000000 ) ) ;
#117 = AXIS2_PLACEMENT_3D ( 'NONE', #46, #150, #203 ) ;
#118 = DIRECTION ( 'NONE',  ( 1.000000000000000000, 0.000000000000000000, 0.000000000000000000 ) ) ;
#119 = DIRECTION ( 'NONE',  ( 0.000000000000000000, 0.000000000000000000, 1.000000000000000000 ) ) ;
#120 = CC_DESIGN_DATE_AND_TIME_ASSIGNMENT ( #219, #72, ( #206 ) ) ;
#121 = CARTESIAN_POINT ( 'NONE',  ( 5.099999999999999645, 6.245698675651500839E-16, 315.0000000000000000 ) ) ;
#122 = CARTESIAN_POINT ( 'NONE',  ( 0.000000000000000000, 0.000000000000000000, 0.000000000000000000 ) ) ;
#123 = CARTESIAN_POINT ( 'NONE',  ( -5.099999999999999645, 0.000000000000000000, 5.000000000000000000 ) ) ;
#124 = APPROVAL ( #127, 'NEURÈENÝ' ) ;
#125 = ORIENTED_EDGE ( 'NONE', *, *, #51, .T. ) ;
#126 = APPROVAL_PERSON_ORGANIZATION ( #39, #40, #129 ) ;
#127 = APPROVAL_STATUS ( 'not_yet_approved' ) ;
#128 = EDGE_LOOP ( 'NONE', ( #71, #21, #218, #8 ) ) ;
#129 = APPROVAL_ROLE ( '' ) ;
#130 = ORIENTED_EDGE ( 'NONE', *, *, #11, .T. ) ;
#131 = ORIENTED_EDGE ( 'NONE', *, *, #221, .T. ) ;
#132 = DESIGN_CONTEXT ( 'detailed design', #98, 'design' ) ;
#133 = PLANE ( 'NONE',  #189 ) ;
#134 = FACE_OUTER_BOUND ( 'NONE', #7, .T. ) ;
#135 = CARTESIAN_POINT ( 'NONE',  ( 0.000000000000000000, 0.000000000000000000, 0.000000000000000000 ) ) ;
#136 = CC_DESIGN_APPROVAL ( #40, ( #19 ) ) ;
#137 = CC_DESIGN_DATE_AND_TIME_ASSIGNMENT ( #167, #93, ( #96 ) ) ;
#138 = CARTESIAN_POINT ( 'NONE',  ( 8.000000000000000000, 9.797174393178825657E-16, 5.000000000000000000 ) ) ;
#139 = CARTESIAN_POINT ( 'NONE',  ( 8.000000000000000000, 9.797174393178825657E-16, 5.000000000000000000 ) ) ;
#140 = LOCAL_TIME ( 11, 58, 43.00000000000000000, #2 ) ;
#141 = APPROVAL_ROLE ( '' ) ;
#142 = DIRECTION ( 'NONE',  ( 0.000000000000000000, 0.000000000000000000, 1.000000000000000000 ) ) ;
#143 = COORDINATED_UNIVERSAL_TIME_OFFSET ( 1, 0, .AHEAD. ) ;
#144 = ORIENTED_EDGE ( 'NONE', *, *, #153, .F. ) ;
#145 = APPROVAL_STATUS ( 'not_yet_approved' ) ;
#146 = DIRECTION ( 'NONE',  ( 0.000000000000000000, 0.000000000000000000, 1.000000000000000000 ) ) ;
#147 = PERSON_AND_ORGANIZATION_ROLE ( 'design_supplier' ) ;
#148 = CYLINDRICAL_SURFACE ( 'NONE', #193, 5.099999999999999645 ) ;
#149 = DIRECTION ( 'NONE',  ( 0.000000000000000000, 0.000000000000000000, 1.000000000000000000 ) ) ;
#150 = DIRECTION ( 'NONE',  ( 0.000000000000000000, 0.000000000000000000, 1.000000000000000000 ) ) ;
#151 = CLOSED_SHELL ( 'NONE', ( #91, #178, #102, #37, #155, #22, #84 ) ) ;
#152 = PLANE ( 'NONE',  #229 ) ;
#153 = EDGE_CURVE ( 'NONE', #223, #246, #43, .T. ) ;
#154 = CARTESIAN_POINT ( 'NONE',  ( 0.000000000000000000, 0.000000000000000000, 5.000000000000000000 ) ) ;
#155 = ADVANCED_FACE ( 'NONE', ( #97 ), #152, .F. ) ;
#156 = CC_DESIGN_APPROVAL ( #124, ( #206 ) ) ;
#157 = CARTESIAN_POINT ( 'NONE',  ( 0.000000000000000000, 0.000000000000000000, 315.0000000000000000 ) ) ;
#158 = CARTESIAN_POINT ( 'NONE',  ( 0.000000000000000000, 0.000000000000000000, 5.000000000000000000 ) ) ;
#159 = VECTOR ( 'NONE', #59, 1000.000000000000000 ) ;
#160 = CIRCLE ( 'NONE', #16, 5.099999999999999645 ) ;
#161 = CC_DESIGN_PERSON_AND_ORGANIZATION_ASSIGNMENT ( #204, #147, ( #19 ) ) ;
#162 = CIRCLE ( 'NONE', #198, 8.000000000000000000 ) ;
#163 = DIRECTION ( 'NONE',  ( -0.000000000000000000, -0.000000000000000000, -1.000000000000000000 ) ) ;
#164 = COORDINATED_UNIVERSAL_TIME_OFFSET ( 1, 0, .AHEAD. ) ;
#165 = EDGE_LOOP ( 'NONE', ( #188, #242 ) ) ;
#166 = AXIS2_PLACEMENT_3D ( 'NONE', #13, #176, #250 ) ;
#167 = DATE_AND_TIME ( #216, #211 ) ;
#168 = ORIENTED_EDGE ( 'NONE', *, *, #17, .F. ) ;
#169 = EDGE_LOOP ( 'NONE', ( #23, #25 ) ) ;
#170 = APPROVAL_ROLE ( '' ) ;
#171 = PERSON ( 'NEURÈENÝ', 'NEURÈENÝ', 'NEURÈENÝ', ('NEURÈENÝ'), ('NEURÈENÝ'), ('NEURÈENÝ') ) ;
#172 = ORIENTED_EDGE ( 'NONE', *, *, #57, .F. ) ;
#173 = DIRECTION ( 'NONE',  ( 0.000000000000000000, 0.000000000000000000, 1.000000000000000000 ) ) ;
#174 = CIRCLE ( 'NONE', #117, 5.099999999999999645 ) ;
#175 = CYLINDRICAL_SURFACE ( 'NONE', #63, 8.000000000000000000 ) ;
#176 = DIRECTION ( 'NONE',  ( -0.000000000000000000, -0.000000000000000000, -1.000000000000000000 ) ) ;
#177 = FACE_OUTER_BOUND ( 'NONE', #182, .T. ) ;
#178 = ADVANCED_FACE ( 'NONE', ( #134 ), #228, .T. ) ;
#179 = CC_DESIGN_PERSON_AND_ORGANIZATION_ASSIGNMENT ( #201, #18, ( #38 ) ) ;
#180 = AXIS2_PLACEMENT_3D ( 'NONE', #33, #119, #191 ) ;
#181 = PERSON_AND_ORGANIZATION_ROLE ( 'creator' ) ;
#182 = EDGE_LOOP ( 'NONE', ( #75, #112, #131, #27 ) ) ;
#183 = APPROVAL_DATE_TIME ( #74, #124 ) ;
#184 = CARTESIAN_POINT ( 'NONE',  ( 0.000000000000000000, 0.000000000000000000, 315.0000000000000000 ) ) ;
#185 = EDGE_LOOP ( 'NONE', ( #172, #168, #130, #3 ) ) ;
#186 = CALENDAR_DATE ( 2023, 12, 2 ) ;
#187 = FACE_BOUND ( 'NONE', #165, .T. ) ;
#188 = ORIENTED_EDGE ( 'NONE', *, *, #111, .F. ) ;
#189 = AXIS2_PLACEMENT_3D ( 'NONE', #207, #29, #82 ) ;
#190 = DIRECTION ( 'NONE',  ( -1.000000000000000000, 0.000000000000000000, 0.000000000000000000 ) ) ;
#191 = DIRECTION ( 'NONE',  ( 1.000000000000000000, 0.000000000000000000, 0.000000000000000000 ) ) ;
#192 = DIRECTION ( 'NONE',  ( 1.000000000000000000, 0.000000000000000000, 0.000000000000000000 ) ) ;
#193 = AXIS2_PLACEMENT_3D ( 'NONE', #184, #65, #114 ) ;
#194 = LINE ( 'NONE', #138, #159 ) ;
#195 = APPLICATION_CONTEXT ( 'configuration controlled 3d designs of mechanical parts and assemblies' ) ;
#196 = ORGANIZATION ( 'NEURÈENÝ', 'NEURÈENÝ', '' ) ;
#197 =( NAMED_UNIT ( * ) SI_UNIT ( $, .STERADIAN. ) SOLID_ANGLE_UNIT ( ) );
#198 = AXIS2_PLACEMENT_3D ( 'NONE', #6, #146, #220 ) ;
#199 = CALENDAR_DATE ( 2023, 12, 2 ) ;
#200 = VERTEX_POINT ( 'NONE', #251 ) ;
#201 = PERSON_AND_ORGANIZATION ( #171, #196 ) ;
#202 = LINE ( 'NONE', #54, #35 ) ;
#203 = DIRECTION ( 'NONE',  ( 1.000000000000000000, 0.000000000000000000, 0.000000000000000000 ) ) ;
#204 = PERSON_AND_ORGANIZATION ( #171, #196 ) ;
#205 = ORIENTED_EDGE ( 'NONE', *, *, #233, .F. ) ;
#206 = SECURITY_CLASSIFICATION ( '', '', #24 ) ;
#207 = CARTESIAN_POINT ( 'NONE',  ( 0.000000000000000000, 0.000000000000000000, 5.000000000000000000 ) ) ;
#208 = SHAPE_DEFINITION_REPRESENTATION ( #234, #26 ) ;
#209 = LINE ( 'NONE', #249, #254 ) ;
#210 = CARTESIAN_POINT ( 'NONE',  ( 0.000000000000000000, 0.000000000000000000, 5.000000000000000000 ) ) ;
#211 = LOCAL_TIME ( 11, 58, 43.00000000000000000, #86 ) ;
#212 = PRODUCT_RELATED_PRODUCT_CATEGORY ( 'detail', '', ( #38 ) ) ;
#213 = APPROVAL ( #237, 'NEURÈENÝ' ) ;
#214 = AXIS2_PLACEMENT_3D ( 'NONE', #236, #142, #244 ) ;
#215 = AXIS2_PLACEMENT_3D ( 'NONE', #122, #173, #248 ) ;
#216 = CALENDAR_DATE ( 2023, 12, 2 ) ;
#217 = PERSON_AND_ORGANIZATION ( #171, #196 ) ;
#218 = ORIENTED_EDGE ( 'NONE', *, *, #4, .T. ) ;
#219 = DATE_AND_TIME ( #186, #140 ) ;
#220 = DIRECTION ( 'NONE',  ( 1.000000000000000000, 0.000000000000000000, 0.000000000000000000 ) ) ;
#221 = EDGE_CURVE ( 'NONE', #246, #200, #79, .T. ) ;
#222 = EDGE_CURVE ( 'NONE', #87, #48, #160, .T. ) ;
#223 = VERTEX_POINT ( 'NONE', #139 ) ;
#224 = ORIENTED_EDGE ( 'NONE', *, *, #221, .F. ) ;
#225 =( GEOMETRIC_REPRESENTATION_CONTEXT ( 3 ) GLOBAL_UNCERTAINTY_ASSIGNED_CONTEXT ( ( #247 ) ) GLOBAL_UNIT_ASSIGNED_CONTEXT ( ( #255, #64, #197 ) ) REPRESENTATION_CONTEXT ( 'NONE', 'WORKASPACE' ) );
#226 = DIRECTION ( 'NONE',  ( 1.000000000000000000, 0.000000000000000000, -0.000000000000000000 ) ) ;
#227 = CARTESIAN_POINT ( 'NONE',  ( 5.099999999999999645, 6.245698675651500839E-16, 5.000000000000000000 ) ) ;
#228 = CYLINDRICAL_SURFACE ( 'NONE', #76, 8.000000000000000000 ) ;
#229 = AXIS2_PLACEMENT_3D ( 'NONE', #135, #36, #226 ) ;
#230 = APPROVAL_PERSON_ORGANIZATION ( #217, #124, #170 ) ;
#231 = DIRECTION ( 'NONE',  ( 0.000000000000000000, 0.000000000000000000, 1.000000000000000000 ) ) ;
#232 = CARTESIAN_POINT ( 'NONE',  ( -8.000000000000000000, 0.000000000000000000, 5.000000000000000000 ) ) ;
#233 = EDGE_CURVE ( 'NONE', #109, #200, #14, .T. ) ;
#234 = PRODUCT_DEFINITION_SHAPE ( 'NONE', 'NONE',  #96 ) ;
#235 = CARTESIAN_POINT ( 'NONE',  ( 0.000000000000000000, 0.000000000000000000, 0.000000000000000000 ) ) ;
#236 = CARTESIAN_POINT ( 'NONE',  ( 0.000000000000000000, 0.000000000000000000, 315.0000000000000000 ) ) ;
#237 = APPROVAL_STATUS ( 'not_yet_approved' ) ;
#238 = VERTEX_POINT ( 'NONE', #123 ) ;
#239 = AXIS2_PLACEMENT_3D ( 'NONE', #83, #58, #34 ) ;
#240 = COORDINATED_UNIVERSAL_TIME_OFFSET ( 1, 0, .AHEAD. ) ;
#241 = CC_DESIGN_APPROVAL ( #213, ( #96 ) ) ;
#242 = ORIENTED_EDGE ( 'NONE', *, *, #4, .F. ) ;
#243 = APPLICATION_PROTOCOL_DEFINITION ( 'international standard', 'config_control_design', 1994, #195 ) ;
#244 = DIRECTION ( 'NONE',  ( 1.000000000000000000, 0.000000000000000000, 0.000000000000000000 ) ) ;
#245 = CALENDAR_DATE ( 2023, 12, 2 ) ;
#246 = VERTEX_POINT ( 'NONE', #15 ) ;
#247 = UNCERTAINTY_MEASURE_WITH_UNIT (LENGTH_MEASURE( 1.000000000000000082E-05 ), #255, 'distance_accuracy_value', 'NONE');
#248 = DIRECTION ( 'NONE',  ( 1.000000000000000000, 0.000000000000000000, 0.000000000000000000 ) ) ;
#249 = CARTESIAN_POINT ( 'NONE',  ( 5.099999999999999645, 6.245698675651500839E-16, 315.0000000000000000 ) ) ;
#250 = DIRECTION ( 'NONE',  ( -1.000000000000000000, 0.000000000000000000, 0.000000000000000000 ) ) ;
#251 = CARTESIAN_POINT ( 'NONE',  ( -8.000000000000000000, 0.000000000000000000, 0.000000000000000000 ) ) ;
#252 = CC_DESIGN_PERSON_AND_ORGANIZATION_ASSIGNMENT ( #49, #181, ( #19 ) ) ;
#253 = DIRECTION ( 'NONE',  ( 0.000000000000000000, 0.000000000000000000, 1.000000000000000000 ) ) ;
#254 = VECTOR ( 'NONE', #30, 1000.000000000000000 ) ;
#255 =( LENGTH_UNIT ( ) NAMED_UNIT ( * ) SI_UNIT ( .MILLI., .METRE. ) );
ENDSEC;
END-ISO-10303-21;
