ISO-10303-21;
HEADER;
FILE_DESCRIPTION (( 'STEP AP203' ),
    '1' );
FILE_NAME ('2485.STEP',
    '2023-02-12T12:22:29',
    ( '' ),
    ( '' ),
    'SwSTEP 2.0',
    'SolidWorks 2019',
    '' );
FILE_SCHEMA (( 'CONFIG_CONTROL_DESIGN' ));
ENDSEC;

DATA;
#1 = ORIENTED_EDGE ( 'NONE', *, *, #210, .T. ) ;
#2 = DIRECTION ( 'NONE',  ( 1.000000000000000000, 0.000000000000000000, 0.000000000000000000 ) ) ;
#3 = DIRECTION ( 'NONE',  ( 1.000000000000000000, 0.000000000000000000, -0.000000000000000000 ) ) ;
#4 = COORDINATED_UNIVERSAL_TIME_OFFSET ( 1, 0, .AHEAD. ) ;
#5 = FACE_BOUND ( 'NONE', #37, .T. ) ;
#6 = LOCAL_TIME ( 13, 22, 29.00000000000000000, #164 ) ;
#7 = PERSON_AND_ORGANIZATION ( #156, #163 ) ;
#8 = CALENDAR_DATE ( 2023, 12, 2 ) ;
#9 = AXIS2_PLACEMENT_3D ( 'NONE', #65, #86, #83 ) ;
#10 = PRODUCT_DEFINITION ( 'NEZNÁMÝ', '', #122, #97 ) ;
#11 = ORIENTED_EDGE ( 'NONE', *, *, #13, .T. ) ;
#12 = DIRECTION ( 'NONE',  ( 0.000000000000000000, 0.000000000000000000, 1.000000000000000000 ) ) ;
#13 = EDGE_CURVE ( 'NONE', #196, #14, #216, .T. ) ;
#14 = VERTEX_POINT ( 'NONE', #149 ) ;
#15 = DIRECTION ( 'NONE',  ( 0.000000000000000000, 0.000000000000000000, 1.000000000000000000 ) ) ;
#16 = CARTESIAN_POINT ( 'NONE',  ( 0.000000000000000000, 0.000000000000000000, 125.0000000000000000 ) ) ;
#17 = DIRECTION ( 'NONE',  ( -1.000000000000000000, 0.000000000000000000, 0.000000000000000000 ) ) ;
#18 = PRODUCT_RELATED_PRODUCT_CATEGORY ( 'detail', '', ( #247 ) ) ;
#19 = CIRCLE ( 'NONE', #131, 1.100000000000000089 ) ;
#20 = APPROVAL ( #48, 'NEURÈENÝ' ) ;
#21 = VERTEX_POINT ( 'NONE', #167 ) ;
#22 = APPROVAL_PERSON_ORGANIZATION ( #31, #175, #46 ) ;
#23 = EDGE_LOOP ( 'NONE', ( #245, #93, #1, #248 ) ) ;
#24 = EDGE_CURVE ( 'NONE', #123, #139, #134, .T. ) ;
#25 = SECURITY_CLASSIFICATION_LEVEL ( 'unclassified' ) ;
#26 = DIRECTION ( 'NONE',  ( 1.000000000000000000, 0.000000000000000000, 0.000000000000000000 ) ) ;
#27 = APPROVAL_ROLE ( '' ) ;
#28 = CIRCLE ( 'NONE', #169, 2.000000000000000000 ) ;
#29 = PERSON_AND_ORGANIZATION ( #156, #163 ) ;
#30 = SECURITY_CLASSIFICATION ( '', '', #25 ) ;
#31 = PERSON_AND_ORGANIZATION ( #156, #163 ) ;
#32 = DIRECTION ( 'NONE',  ( 1.000000000000000000, 0.000000000000000000, 0.000000000000000000 ) ) ;
#33 = FACE_OUTER_BOUND ( 'NONE', #58, .T. ) ;
#34 = AXIS2_PLACEMENT_3D ( 'NONE', #71, #12, #51 ) ;
#35 = CC_DESIGN_DATE_AND_TIME_ASSIGNMENT ( #243, #68, ( #30 ) ) ;
#36 = ORIENTED_EDGE ( 'NONE', *, *, #13, .F. ) ;
#37 = EDGE_LOOP ( 'NONE', ( #55, #133 ) ) ;
#38 = ORIENTED_EDGE ( 'NONE', *, *, #42, .F. ) ;
#39 = CYLINDRICAL_SURFACE ( 'NONE', #189, 2.000000000000000000 ) ;
#40 = CC_DESIGN_APPROVAL ( #175, ( #122 ) ) ;
#41 = ORIENTED_EDGE ( 'NONE', *, *, #108, .T. ) ;
#42 = EDGE_CURVE ( 'NONE', #101, #139, #185, .T. ) ;
#43 = CARTESIAN_POINT ( 'NONE',  ( 0.000000000000000000, 0.000000000000000000, 2.000000000000000000 ) ) ;
#44 = DIRECTION ( 'NONE',  ( 1.000000000000000000, 0.000000000000000000, 0.000000000000000000 ) ) ;
#45 = MECHANICAL_CONTEXT ( 'NONE', #173, 'mechanical' ) ;
#46 = APPROVAL_ROLE ( '' ) ;
#47 = AXIS2_PLACEMENT_3D ( 'NONE', #52, #187, #212 ) ;
#48 = APPROVAL_STATUS ( 'not_yet_approved' ) ;
#49 = EDGE_CURVE ( 'NONE', #121, #213, #218, .T. ) ;
#50 = CALENDAR_DATE ( 2023, 12, 2 ) ;
#51 = DIRECTION ( 'NONE',  ( 1.000000000000000000, 0.000000000000000000, 0.000000000000000000 ) ) ;
#52 = CARTESIAN_POINT ( 'NONE',  ( 0.000000000000000000, 0.000000000000000000, 0.000000000000000000 ) ) ;
#53 = CARTESIAN_POINT ( 'NONE',  ( 0.000000000000000000, 0.000000000000000000, 2.000000000000000000 ) ) ;
#54 = AXIS2_PLACEMENT_3D ( 'NONE', #16, #170, #98 ) ;
#55 = ORIENTED_EDGE ( 'NONE', *, *, #96, .F. ) ;
#56 = PLANE ( 'NONE',  #252 ) ;
#57 = PRODUCT_DEFINITION_SHAPE ( 'NONE', 'NONE',  #10 ) ;
#58 = EDGE_LOOP ( 'NONE', ( #36, #80, #235, #228 ) ) ;
#59 = ORIENTED_EDGE ( 'NONE', *, *, #176, .F. ) ;
#60 = CARTESIAN_POINT ( 'NONE',  ( 0.000000000000000000, 0.000000000000000000, 2.000000000000000000 ) ) ;
#61 = ORIENTED_EDGE ( 'NONE', *, *, #24, .T. ) ;
#62 = PLANE ( 'NONE',  #47 ) ;
#63 = APPROVAL ( #244, 'NEURÈENÝ' ) ;
#64 = AXIS2_PLACEMENT_3D ( 'NONE', #125, #206, #26 ) ;
#65 = CARTESIAN_POINT ( 'NONE',  ( 0.000000000000000000, 0.000000000000000000, 2.000000000000000000 ) ) ;
#66 = CARTESIAN_POINT ( 'NONE',  ( -1.100000000000000089, 0.000000000000000000, 2.000000000000000000 ) ) ;
#67 = DIRECTION ( 'NONE',  ( 0.000000000000000000, 0.000000000000000000, 1.000000000000000000 ) ) ;
#68 = DATE_TIME_ROLE ( 'classification_date' ) ;
#69 = CIRCLE ( 'NONE', #214, 2.000000000000000000 ) ;
#70 = APPROVAL_ROLE ( '' ) ;
#71 = CARTESIAN_POINT ( 'NONE',  ( 0.000000000000000000, 0.000000000000000000, 125.0000000000000000 ) ) ;
#72 = ORIENTED_EDGE ( 'NONE', *, *, #223, .F. ) ;
#73 = CARTESIAN_POINT ( 'NONE',  ( 2.000000000000000000, 2.449293598294706414E-16, 2.000000000000000000 ) ) ;
#74 = CARTESIAN_POINT ( 'NONE',  ( -2.000000000000000000, 0.000000000000000000, 0.000000000000000000 ) ) ;
#75 =( GEOMETRIC_REPRESENTATION_CONTEXT ( 3 ) GLOBAL_UNCERTAINTY_ASSIGNED_CONTEXT ( ( #193 ) ) GLOBAL_UNIT_ASSIGNED_CONTEXT ( ( #192, #102, #111 ) ) REPRESENTATION_CONTEXT ( 'NONE', 'WORKASPACE' ) );
#76 = LOCAL_TIME ( 13, 22, 29.00000000000000000, #129 ) ;
#77 = AXIS2_PLACEMENT_3D ( 'NONE', #43, #181, #127 ) ;
#78 = ORIENTED_EDGE ( 'NONE', *, *, #230, .T. ) ;
#79 = LINE ( 'NONE', #159, #205 ) ;
#80 = ORIENTED_EDGE ( 'NONE', *, *, #223, .T. ) ;
#81 = DIRECTION ( 'NONE',  ( -0.000000000000000000, -0.000000000000000000, -1.000000000000000000 ) ) ;
#82 = CC_DESIGN_PERSON_AND_ORGANIZATION_ASSIGNMENT ( #209, #225, ( #247 ) ) ;
#83 = DIRECTION ( 'NONE',  ( 1.000000000000000000, 0.000000000000000000, -0.000000000000000000 ) ) ;
#84 = DIRECTION ( 'NONE',  ( -0.000000000000000000, -0.000000000000000000, -1.000000000000000000 ) ) ;
#85 = PERSON_AND_ORGANIZATION ( #156, #163 ) ;
#86 = DIRECTION ( 'NONE',  ( 0.000000000000000000, 0.000000000000000000, 1.000000000000000000 ) ) ;
#87 = PERSON_AND_ORGANIZATION_ROLE ( 'creator' ) ;
#88 = DIRECTION ( 'NONE',  ( 0.000000000000000000, 0.000000000000000000, 1.000000000000000000 ) ) ;
#89 = PERSON_AND_ORGANIZATION_ROLE ( 'classification_officer' ) ;
#90 = CALENDAR_DATE ( 2023, 12, 2 ) ;
#91 = CC_DESIGN_DATE_AND_TIME_ASSIGNMENT ( #182, #146, ( #10 ) ) ;
#92 = ADVANCED_FACE ( 'NONE', ( #215 ), #231, .T. ) ;
#93 = ORIENTED_EDGE ( 'NONE', *, *, #230, .F. ) ;
#94 = DIRECTION ( 'NONE',  ( -0.000000000000000000, -0.000000000000000000, -1.000000000000000000 ) ) ;
#95 = ORIENTED_EDGE ( 'NONE', *, *, #210, .F. ) ;
#96 = EDGE_CURVE ( 'NONE', #213, #121, #103, .T. ) ;
#97 = DESIGN_CONTEXT ( 'detailed design', #191, 'design' ) ;
#98 = DIRECTION ( 'NONE',  ( -1.000000000000000000, 0.000000000000000000, 0.000000000000000000 ) ) ;
#99 = CARTESIAN_POINT ( 'NONE',  ( -1.100000000000000089, 0.000000000000000000, 125.0000000000000000 ) ) ;
#100 = EDGE_LOOP ( 'NONE', ( #172, #11 ) ) ;
#101 = VERTEX_POINT ( 'NONE', #74 ) ;
#102 =( NAMED_UNIT ( * ) PLANE_ANGLE_UNIT ( ) SI_UNIT ( $, .RADIAN. ) );
#103 = CIRCLE ( 'NONE', #201, 1.100000000000000089 ) ;
#104 = LOCAL_TIME ( 13, 22, 29.00000000000000000, #242 ) ;
#105 = APPROVAL_DATE_TIME ( #130, #63 ) ;
#106 = CARTESIAN_POINT ( 'NONE',  ( 1.100000000000000089, 1.347111479062088503E-16, 125.0000000000000000 ) ) ;
#107 = APPLICATION_PROTOCOL_DEFINITION ( 'international standard', 'config_control_design', 1994, #191 ) ;
#108 = EDGE_CURVE ( 'NONE', #14, #213, #155, .T. ) ;
#109 = PLANE ( 'NONE',  #9 ) ;
#110 = PERSON_AND_ORGANIZATION_ROLE ( 'creator' ) ;
#111 =( NAMED_UNIT ( * ) SI_UNIT ( $, .STERADIAN. ) SOLID_ANGLE_UNIT ( ) );
#112 = PERSON_AND_ORGANIZATION ( #156, #163 ) ;
#113 = CC_DESIGN_PERSON_AND_ORGANIZATION_ASSIGNMENT ( #7, #89, ( #30 ) ) ;
#114 = AXIS2_PLACEMENT_3D ( 'NONE', #180, #204, #221 ) ;
#115 = CARTESIAN_POINT ( 'NONE',  ( 2.000000000000000000, 2.449293598294706414E-16, 2.000000000000000000 ) ) ;
#116 = CIRCLE ( 'NONE', #64, 2.000000000000000000 ) ;
#117 = ORIENTED_EDGE ( 'NONE', *, *, #96, .T. ) ;
#118 = CLOSED_SHELL ( 'NONE', ( #120, #240, #168, #160, #254, #92, #142 ) ) ;
#119 = CARTESIAN_POINT ( 'NONE',  ( 0.000000000000000000, 0.000000000000000000, 125.0000000000000000 ) ) ;
#120 = ADVANCED_FACE ( 'NONE', ( #33 ), #194, .T. ) ;
#121 = VERTEX_POINT ( 'NONE', #251 ) ;
#122 = PRODUCT_DEFINITION_FORMATION_WITH_SPECIFIED_SOURCE ( 'LIBOVOLNÝ', '', #247, .NOT_KNOWN. ) ;
#123 = VERTEX_POINT ( 'NONE', #73 ) ;
#124 = PERSON_AND_ORGANIZATION ( #156, #163 ) ;
#125 = CARTESIAN_POINT ( 'NONE',  ( 0.000000000000000000, 0.000000000000000000, 2.000000000000000000 ) ) ;
#126 = FACE_OUTER_BOUND ( 'NONE', #250, .T. ) ;
#127 = DIRECTION ( 'NONE',  ( -1.000000000000000000, 0.000000000000000000, 0.000000000000000000 ) ) ;
#128 = DATE_AND_TIME ( #50, #76 ) ;
#129 = COORDINATED_UNIVERSAL_TIME_OFFSET ( 1, 0, .AHEAD. ) ;
#130 = DATE_AND_TIME ( #161, #208 ) ;
#131 = AXIS2_PLACEMENT_3D ( 'NONE', #222, #88, #2 ) ;
#132 = ADVANCED_BREP_SHAPE_REPRESENTATION ( '2485', ( #174, #114 ), #75 ) ;
#133 = ORIENTED_EDGE ( 'NONE', *, *, #49, .F. ) ;
#134 = LINE ( 'NONE', #115, #236 ) ;
#135 = DIRECTION ( 'NONE',  ( -0.000000000000000000, -0.000000000000000000, -1.000000000000000000 ) ) ;
#136 = AXIS2_PLACEMENT_3D ( 'NONE', #119, #253, #17 ) ;
#137 = CARTESIAN_POINT ( 'NONE',  ( 0.000000000000000000, 0.000000000000000000, 125.0000000000000000 ) ) ;
#138 = CC_DESIGN_PERSON_AND_ORGANIZATION_ASSIGNMENT ( #29, #165, ( #122 ) ) ;
#139 = VERTEX_POINT ( 'NONE', #153 ) ;
#140 = ORIENTED_EDGE ( 'NONE', *, *, #184, .T. ) ;
#141 = CC_DESIGN_SECURITY_CLASSIFICATION ( #30, ( #122 ) ) ;
#142 = ADVANCED_FACE ( 'NONE', ( #232 ), #56, .T. ) ;
#143 = FACE_OUTER_BOUND ( 'NONE', #23, .T. ) ;
#144 = DIRECTION ( 'NONE',  ( -0.000000000000000000, -0.000000000000000000, -1.000000000000000000 ) ) ;
#145 = DIRECTION ( 'NONE',  ( 1.000000000000000000, 0.000000000000000000, 0.000000000000000000 ) ) ;
#146 = DATE_TIME_ROLE ( 'creation_date' ) ;
#147 = PERSON_AND_ORGANIZATION ( #156, #163 ) ;
#148 = DATE_AND_TIME ( #8, #152 ) ;
#149 = CARTESIAN_POINT ( 'NONE',  ( -1.100000000000000089, 0.000000000000000000, 125.0000000000000000 ) ) ;
#150 = AXIS2_PLACEMENT_3D ( 'NONE', #227, #188, #32 ) ;
#151 = ORIENTED_EDGE ( 'NONE', *, *, #176, .T. ) ;
#152 = LOCAL_TIME ( 13, 22, 29.00000000000000000, #4 ) ;
#153 = CARTESIAN_POINT ( 'NONE',  ( 2.000000000000000000, 2.449293598294706414E-16, 0.000000000000000000 ) ) ;
#154 = CC_DESIGN_PERSON_AND_ORGANIZATION_ASSIGNMENT ( #124, #110, ( #122 ) ) ;
#155 = LINE ( 'NONE', #99, #233 ) ;
#156 = PERSON ( 'NEURÈENÝ', 'NEURÈENÝ', 'NEURÈENÝ', ('NEURÈENÝ'), ('NEURÈENÝ'), ('NEURÈENÝ') ) ;
#157 = EDGE_LOOP ( 'NONE', ( #78, #140 ) ) ;
#158 = DIRECTION ( 'NONE',  ( -1.000000000000000000, 0.000000000000000000, 0.000000000000000000 ) ) ;
#159 = CARTESIAN_POINT ( 'NONE',  ( 1.100000000000000089, 1.347111479062088503E-16, 125.0000000000000000 ) ) ;
#160 = ADVANCED_FACE ( 'NONE', ( #5, #241 ), #109, .T. ) ;
#161 = CALENDAR_DATE ( 2023, 12, 2 ) ;
#162 = APPROVAL_DATE_TIME ( #148, #20 ) ;
#163 = ORGANIZATION ( 'NEURÈENÝ', 'NEURÈENÝ', '' ) ;
#164 = COORDINATED_UNIVERSAL_TIME_OFFSET ( 1, 0, .AHEAD. ) ;
#165 = PERSON_AND_ORGANIZATION_ROLE ( 'design_supplier' ) ;
#166 = VECTOR ( 'NONE', #84, 1000.000000000000000 ) ;
#167 = CARTESIAN_POINT ( 'NONE',  ( -2.000000000000000000, 0.000000000000000000, 2.000000000000000000 ) ) ;
#168 = ADVANCED_FACE ( 'NONE', ( #143 ), #203, .T. ) ;
#169 = AXIS2_PLACEMENT_3D ( 'NONE', #220, #67, #145 ) ;
#170 = DIRECTION ( 'NONE',  ( -0.000000000000000000, -0.000000000000000000, -1.000000000000000000 ) ) ;
#171 = APPROVAL_PERSON_ORGANIZATION ( #147, #63, #70 ) ;
#172 = ORIENTED_EDGE ( 'NONE', *, *, #197, .T. ) ;
#173 = APPLICATION_CONTEXT ( 'configuration controlled 3d designs of mechanical parts and assemblies' ) ;
#174 = MANIFOLD_SOLID_BREP ( 'Pøidat vysunutím3', #118 ) ;
#175 = APPROVAL ( #239, 'NEURÈENÝ' ) ;
#176 = EDGE_CURVE ( 'NONE', #139, #101, #28, .T. ) ;
#177 = LINE ( 'NONE', #238, #166 ) ;
#178 = SHAPE_DEFINITION_REPRESENTATION ( #57, #132 ) ;
#179 = DIRECTION ( 'NONE',  ( 0.000000000000000000, 0.000000000000000000, 1.000000000000000000 ) ) ;
#180 = CARTESIAN_POINT ( 'NONE',  ( 0.000000000000000000, 0.000000000000000000, 0.000000000000000000 ) ) ;
#181 = DIRECTION ( 'NONE',  ( -0.000000000000000000, -0.000000000000000000, -1.000000000000000000 ) ) ;
#182 = DATE_AND_TIME ( #90, #104 ) ;
#183 = CC_DESIGN_APPROVAL ( #63, ( #30 ) ) ;
#184 = EDGE_CURVE ( 'NONE', #123, #21, #116, .T. ) ;
#185 = CIRCLE ( 'NONE', #150, 2.000000000000000000 ) ;
#186 = APPROVAL_PERSON_ORGANIZATION ( #112, #20, #27 ) ;
#187 = DIRECTION ( 'NONE',  ( 0.000000000000000000, 0.000000000000000000, 1.000000000000000000 ) ) ;
#188 = DIRECTION ( 'NONE',  ( 0.000000000000000000, 0.000000000000000000, 1.000000000000000000 ) ) ;
#189 = AXIS2_PLACEMENT_3D ( 'NONE', #199, #81, #158 ) ;
#190 = CARTESIAN_POINT ( 'NONE',  ( 0.000000000000000000, 0.000000000000000000, 2.000000000000000000 ) ) ;
#191 = APPLICATION_CONTEXT ( 'configuration controlled 3d designs of mechanical parts and assemblies' ) ;
#192 =( LENGTH_UNIT ( ) NAMED_UNIT ( * ) SI_UNIT ( .MILLI., .METRE. ) );
#193 = UNCERTAINTY_MEASURE_WITH_UNIT (LENGTH_MEASURE( 1.000000000000000082E-05 ), #192, 'distance_accuracy_value', 'NONE');
#194 = CYLINDRICAL_SURFACE ( 'NONE', #54, 1.100000000000000089 ) ;
#195 = DIRECTION ( 'NONE',  ( 1.000000000000000000, 0.000000000000000000, 0.000000000000000000 ) ) ;
#196 = VERTEX_POINT ( 'NONE', #106 ) ;
#197 = EDGE_CURVE ( 'NONE', #14, #196, #19, .T. ) ;
#198 = ORIENTED_EDGE ( 'NONE', *, *, #184, .F. ) ;
#199 = CARTESIAN_POINT ( 'NONE',  ( 0.000000000000000000, 0.000000000000000000, 2.000000000000000000 ) ) ;
#200 = CC_DESIGN_PERSON_AND_ORGANIZATION_ASSIGNMENT ( #85, #87, ( #10 ) ) ;
#201 = AXIS2_PLACEMENT_3D ( 'NONE', #53, #217, #234 ) ;
#202 = CALENDAR_DATE ( 2023, 12, 2 ) ;
#203 = CYLINDRICAL_SURFACE ( 'NONE', #77, 2.000000000000000000 ) ;
#204 = DIRECTION ( 'NONE',  ( 0.000000000000000000, 0.000000000000000000, 1.000000000000000000 ) ) ;
#205 = VECTOR ( 'NONE', #144, 1000.000000000000000 ) ;
#206 = DIRECTION ( 'NONE',  ( 0.000000000000000000, 0.000000000000000000, 1.000000000000000000 ) ) ;
#207 = APPROVAL_DATE_TIME ( #128, #175 ) ;
#208 = LOCAL_TIME ( 13, 22, 29.00000000000000000, #226 ) ;
#209 = PERSON_AND_ORGANIZATION ( #156, #163 ) ;
#210 = EDGE_CURVE ( 'NONE', #21, #101, #177, .T. ) ;
#211 = EDGE_LOOP ( 'NONE', ( #72, #246, #41, #117 ) ) ;
#212 = DIRECTION ( 'NONE',  ( 1.000000000000000000, 0.000000000000000000, -0.000000000000000000 ) ) ;
#213 = VERTEX_POINT ( 'NONE', #66 ) ;
#214 = AXIS2_PLACEMENT_3D ( 'NONE', #60, #219, #44 ) ;
#215 = FACE_OUTER_BOUND ( 'NONE', #211, .T. ) ;
#216 = CIRCLE ( 'NONE', #34, 1.100000000000000089 ) ;
#217 = DIRECTION ( 'NONE',  ( 0.000000000000000000, 0.000000000000000000, 1.000000000000000000 ) ) ;
#218 = CIRCLE ( 'NONE', #249, 1.100000000000000089 ) ;
#219 = DIRECTION ( 'NONE',  ( 0.000000000000000000, 0.000000000000000000, 1.000000000000000000 ) ) ;
#220 = CARTESIAN_POINT ( 'NONE',  ( 0.000000000000000000, 0.000000000000000000, 0.000000000000000000 ) ) ;
#221 = DIRECTION ( 'NONE',  ( 1.000000000000000000, 0.000000000000000000, 0.000000000000000000 ) ) ;
#222 = CARTESIAN_POINT ( 'NONE',  ( 0.000000000000000000, 0.000000000000000000, 125.0000000000000000 ) ) ;
#223 = EDGE_CURVE ( 'NONE', #196, #121, #79, .T. ) ;
#224 = APPLICATION_PROTOCOL_DEFINITION ( 'international standard', 'config_control_design', 1994, #173 ) ;
#225 = PERSON_AND_ORGANIZATION_ROLE ( 'design_owner' ) ;
#226 = COORDINATED_UNIVERSAL_TIME_OFFSET ( 1, 0, .AHEAD. ) ;
#227 = CARTESIAN_POINT ( 'NONE',  ( 0.000000000000000000, 0.000000000000000000, 0.000000000000000000 ) ) ;
#228 = ORIENTED_EDGE ( 'NONE', *, *, #108, .F. ) ;
#229 = CC_DESIGN_APPROVAL ( #20, ( #10 ) ) ;
#230 = EDGE_CURVE ( 'NONE', #21, #123, #69, .T. ) ;
#231 = CYLINDRICAL_SURFACE ( 'NONE', #136, 1.100000000000000089 ) ;
#232 = FACE_OUTER_BOUND ( 'NONE', #100, .T. ) ;
#233 = VECTOR ( 'NONE', #135, 1000.000000000000000 ) ;
#234 = DIRECTION ( 'NONE',  ( 1.000000000000000000, 0.000000000000000000, 0.000000000000000000 ) ) ;
#235 = ORIENTED_EDGE ( 'NONE', *, *, #49, .T. ) ;
#236 = VECTOR ( 'NONE', #94, 1000.000000000000000 ) ;
#237 = FACE_OUTER_BOUND ( 'NONE', #255, .T. ) ;
#238 = CARTESIAN_POINT ( 'NONE',  ( -2.000000000000000000, 0.000000000000000000, 2.000000000000000000 ) ) ;
#239 = APPROVAL_STATUS ( 'not_yet_approved' ) ;
#240 = ADVANCED_FACE ( 'NONE', ( #126 ), #39, .T. ) ;
#241 = FACE_OUTER_BOUND ( 'NONE', #157, .T. ) ;
#242 = COORDINATED_UNIVERSAL_TIME_OFFSET ( 1, 0, .AHEAD. ) ;
#243 = DATE_AND_TIME ( #202, #6 ) ;
#244 = APPROVAL_STATUS ( 'not_yet_approved' ) ;
#245 = ORIENTED_EDGE ( 'NONE', *, *, #24, .F. ) ;
#246 = ORIENTED_EDGE ( 'NONE', *, *, #197, .F. ) ;
#247 = PRODUCT ( '2485', '2485', '', ( #45 ) ) ;
#248 = ORIENTED_EDGE ( 'NONE', *, *, #42, .T. ) ;
#249 = AXIS2_PLACEMENT_3D ( 'NONE', #190, #15, #195 ) ;
#250 = EDGE_LOOP ( 'NONE', ( #198, #61, #151, #95 ) ) ;
#251 = CARTESIAN_POINT ( 'NONE',  ( 1.100000000000000089, 1.347111479062088503E-16, 2.000000000000000000 ) ) ;
#252 = AXIS2_PLACEMENT_3D ( 'NONE', #137, #179, #3 ) ;
#253 = DIRECTION ( 'NONE',  ( -0.000000000000000000, -0.000000000000000000, -1.000000000000000000 ) ) ;
#254 = ADVANCED_FACE ( 'NONE', ( #237 ), #62, .F. ) ;
#255 = EDGE_LOOP ( 'NONE', ( #38, #59 ) ) ;
ENDSEC;
END-ISO-10303-21;
