ISO-10303-21;
HEADER;
FILE_DESCRIPTION (( 'STEP AP203' ),
    '1' );
FILE_NAME ('fcea.STEP',
    '2023-02-12T11:42:32',
    ( '' ),
    ( '' ),
    'SwSTEP 2.0',
    'SolidWorks 2019',
    '' );
FILE_SCHEMA (( 'CONFIG_CONTROL_DESIGN' ));
ENDSEC;

DATA;
#1 = DIRECTION ( 'NONE',  ( -0.000000000000000000, -0.000000000000000000, -1.000000000000000000 ) ) ;
#2 = EDGE_CURVE ( 'NONE', #255, #230, #38, .T. ) ;
#3 = CARTESIAN_POINT ( 'NONE',  ( -2.750000000000000000, 0.000000000000000000, 125.0000000000000000 ) ) ;
#4 = DIRECTION ( 'NONE',  ( -0.000000000000000000, -0.000000000000000000, -1.000000000000000000 ) ) ;
#5 = AXIS2_PLACEMENT_3D ( 'NONE', #7, #141, #242 ) ;
#6 = CARTESIAN_POINT ( 'NONE',  ( 0.000000000000000000, 0.000000000000000000, 3.000000000000000000 ) ) ;
#7 = CARTESIAN_POINT ( 'NONE',  ( 0.000000000000000000, 0.000000000000000000, 3.000000000000000000 ) ) ;
#8 = DIRECTION ( 'NONE',  ( 1.000000000000000000, 0.000000000000000000, -0.000000000000000000 ) ) ;
#9 = CARTESIAN_POINT ( 'NONE',  ( 5.000000000000000000, 6.123233995736766282E-16, 3.000000000000000000 ) ) ;
#10 = CARTESIAN_POINT ( 'NONE',  ( -2.750000000000000000, 0.000000000000000000, 125.0000000000000000 ) ) ;
#11 = PERSON_AND_ORGANIZATION ( #65, #91 ) ;
#12 =( NAMED_UNIT ( * ) PLANE_ANGLE_UNIT ( ) SI_UNIT ( $, .RADIAN. ) );
#13 = DATE_AND_TIME ( #187, #206 ) ;
#14 = APPROVAL_DATE_TIME ( #13, #162 ) ;
#15 = ORIENTED_EDGE ( 'NONE', *, *, #28, .F. ) ;
#16 = ORIENTED_EDGE ( 'NONE', *, *, #2, .T. ) ;
#17 = CC_DESIGN_APPROVAL ( #189, ( #241 ) ) ;
#18 = APPROVAL_ROLE ( '' ) ;
#19 = CARTESIAN_POINT ( 'NONE',  ( 0.000000000000000000, 0.000000000000000000, 125.0000000000000000 ) ) ;
#20 = LINE ( 'NONE', #3, #76 ) ;
#21 = ADVANCED_FACE ( 'NONE', ( #238 ), #114, .T. ) ;
#22 = AXIS2_PLACEMENT_3D ( 'NONE', #160, #82, #98 ) ;
#23 = CARTESIAN_POINT ( 'NONE',  ( -5.000000000000000000, 0.000000000000000000, 3.000000000000000000 ) ) ;
#24 = DIRECTION ( 'NONE',  ( 0.000000000000000000, 0.000000000000000000, 1.000000000000000000 ) ) ;
#25 = SHAPE_DEFINITION_REPRESENTATION ( #33, #53 ) ;
#26 = PLANE ( 'NONE',  #243 ) ;
#27 = DIRECTION ( 'NONE',  ( -0.000000000000000000, -0.000000000000000000, -1.000000000000000000 ) ) ;
#28 = EDGE_CURVE ( 'NONE', #88, #170, #46, .T. ) ;
#29 = AXIS2_PLACEMENT_3D ( 'NONE', #19, #1, #74 ) ;
#30 = CARTESIAN_POINT ( 'NONE',  ( 5.000000000000000000, 6.123233995736766282E-16, 3.000000000000000000 ) ) ;
#31 = COORDINATED_UNIVERSAL_TIME_OFFSET ( 1, 0, .AHEAD. ) ;
#32 = APPROVAL_DATE_TIME ( #212, #189 ) ;
#33 = PRODUCT_DEFINITION_SHAPE ( 'NONE', 'NONE',  #225 ) ;
#34 = CIRCLE ( 'NONE', #178, 2.750000000000000000 ) ;
#35 = AXIS2_PLACEMENT_3D ( 'NONE', #221, #90, #188 ) ;
#36 = CC_DESIGN_PERSON_AND_ORGANIZATION_ASSIGNMENT ( #108, #68, ( #241 ) ) ;
#37 = DATE_AND_TIME ( #136, #101 ) ;
#38 = LINE ( 'NONE', #132, #250 ) ;
#39 = ORIENTED_EDGE ( 'NONE', *, *, #116, .F. ) ;
#40 = CARTESIAN_POINT ( 'NONE',  ( 0.000000000000000000, 0.000000000000000000, 3.000000000000000000 ) ) ;
#41 = DIRECTION ( 'NONE',  ( -0.000000000000000000, -0.000000000000000000, -1.000000000000000000 ) ) ;
#42 = DIRECTION ( 'NONE',  ( -0.000000000000000000, -0.000000000000000000, -1.000000000000000000 ) ) ;
#43 = EDGE_CURVE ( 'NONE', #130, #147, #20, .T. ) ;
#44 = CYLINDRICAL_SURFACE ( 'NONE', #93, 2.750000000000000000 ) ;
#45 = DIRECTION ( 'NONE',  ( 1.000000000000000000, 0.000000000000000000, 0.000000000000000000 ) ) ;
#46 = CIRCLE ( 'NONE', #191, 5.000000000000000000 ) ;
#47 = ADVANCED_FACE ( 'NONE', ( #158 ), #77, .T. ) ;
#48 = CALENDAR_DATE ( 2023, 12, 2 ) ;
#49 = DIRECTION ( 'NONE',  ( 0.000000000000000000, 0.000000000000000000, 1.000000000000000000 ) ) ;
#50 = COORDINATED_UNIVERSAL_TIME_OFFSET ( 1, 0, .AHEAD. ) ;
#51 = ORIENTED_EDGE ( 'NONE', *, *, #151, .T. ) ;
#52 = EDGE_CURVE ( 'NONE', #130, #255, #120, .T. ) ;
#53 = ADVANCED_BREP_SHAPE_REPRESENTATION ( 'fcea', ( #186, #152 ), #134 ) ;
#54 = ORIENTED_EDGE ( 'NONE', *, *, #52, .T. ) ;
#55 = EDGE_LOOP ( 'NONE', ( #39, #94 ) ) ;
#56 = COORDINATED_UNIVERSAL_TIME_OFFSET ( 1, 0, .AHEAD. ) ;
#57 = CALENDAR_DATE ( 2023, 12, 2 ) ;
#58 = PRODUCT_RELATED_PRODUCT_CATEGORY ( 'detail', '', ( #71 ) ) ;
#59 = DIRECTION ( 'NONE',  ( -1.000000000000000000, 0.000000000000000000, 0.000000000000000000 ) ) ;
#60 = DIRECTION ( 'NONE',  ( 1.000000000000000000, 0.000000000000000000, 0.000000000000000000 ) ) ;
#61 = LINE ( 'NONE', #23, #142 ) ;
#62 = EDGE_CURVE ( 'NONE', #135, #170, #61, .T. ) ;
#63 = DIRECTION ( 'NONE',  ( 1.000000000000000000, 0.000000000000000000, -0.000000000000000000 ) ) ;
#64 = CARTESIAN_POINT ( 'NONE',  ( 0.000000000000000000, 0.000000000000000000, 3.000000000000000000 ) ) ;
#65 = PERSON ( 'NEURÈENÝ', 'NEURÈENÝ', 'NEURÈENÝ', ('NEURÈENÝ'), ('NEURÈENÝ'), ('NEURÈENÝ') ) ;
#66 = EDGE_CURVE ( 'NONE', #255, #130, #34, .T. ) ;
#67 = CARTESIAN_POINT ( 'NONE',  ( 2.750000000000000000, 3.367778697655220519E-16, 125.0000000000000000 ) ) ;
#68 = PERSON_AND_ORGANIZATION_ROLE ( 'creator' ) ;
#69 = APPLICATION_PROTOCOL_DEFINITION ( 'international standard', 'config_control_design', 1994, #106 ) ;
#70 = ORIENTED_EDGE ( 'NONE', *, *, #28, .T. ) ;
#71 = PRODUCT ( 'fcea', 'fcea', '', ( #166 ) ) ;
#72 = ORIENTED_EDGE ( 'NONE', *, *, #105, .F. ) ;
#73 = ORIENTED_EDGE ( 'NONE', *, *, #43, .T. ) ;
#74 = DIRECTION ( 'NONE',  ( -1.000000000000000000, 0.000000000000000000, 0.000000000000000000 ) ) ;
#75 = EDGE_LOOP ( 'NONE', ( #109, #16, #177, #150 ) ) ;
#76 = VECTOR ( 'NONE', #41, 1000.000000000000000 ) ;
#77 = CYLINDRICAL_SURFACE ( 'NONE', #97, 5.000000000000000000 ) ;
#78 = CARTESIAN_POINT ( 'NONE',  ( 0.000000000000000000, 0.000000000000000000, 125.0000000000000000 ) ) ;
#79 = EDGE_CURVE ( 'NONE', #96, #88, #103, .T. ) ;
#80 = LOCAL_TIME ( 12, 42, 32.00000000000000000, #50 ) ;
#81 = FACE_BOUND ( 'NONE', #55, .T. ) ;
#82 = DIRECTION ( 'NONE',  ( 0.000000000000000000, 0.000000000000000000, 1.000000000000000000 ) ) ;
#83 = CARTESIAN_POINT ( 'NONE',  ( -5.000000000000000000, 0.000000000000000000, 3.000000000000000000 ) ) ;
#84 = PERSON_AND_ORGANIZATION ( #65, #91 ) ;
#85 = AXIS2_PLACEMENT_3D ( 'NONE', #40, #220, #184 ) ;
#86 = PERSON_AND_ORGANIZATION_ROLE ( 'creator' ) ;
#87 = ADVANCED_FACE ( 'NONE', ( #181 ), #125, .T. ) ;
#88 = VERTEX_POINT ( 'NONE', #138 ) ;
#89 = ORIENTED_EDGE ( 'NONE', *, *, #79, .T. ) ;
#90 = DIRECTION ( 'NONE',  ( 0.000000000000000000, 0.000000000000000000, 1.000000000000000000 ) ) ;
#91 = ORGANIZATION ( 'NEURÈENÝ', 'NEURÈENÝ', '' ) ;
#92 = DATE_AND_TIME ( #104, #131 ) ;
#93 = AXIS2_PLACEMENT_3D ( 'NONE', #164, #244, #163 ) ;
#94 = ORIENTED_EDGE ( 'NONE', *, *, #252, .F. ) ;
#95 = APPROVAL ( #195, 'NEURÈENÝ' ) ;
#96 = VERTEX_POINT ( 'NONE', #30 ) ;
#97 = AXIS2_PLACEMENT_3D ( 'NONE', #139, #207, #157 ) ;
#98 = DIRECTION ( 'NONE',  ( 1.000000000000000000, 0.000000000000000000, -0.000000000000000000 ) ) ;
#99 = FACE_OUTER_BOUND ( 'NONE', #173, .T. ) ;
#100 = DIRECTION ( 'NONE',  ( 1.000000000000000000, 0.000000000000000000, 0.000000000000000000 ) ) ;
#101 = LOCAL_TIME ( 12, 42, 32.00000000000000000, #56 ) ;
#102 = DIRECTION ( 'NONE',  ( 0.000000000000000000, 0.000000000000000000, 1.000000000000000000 ) ) ;
#103 = LINE ( 'NONE', #9, #133 ) ;
#104 = CALENDAR_DATE ( 2023, 12, 2 ) ;
#105 = EDGE_CURVE ( 'NONE', #135, #96, #201, .T. ) ;
#106 = APPLICATION_CONTEXT ( 'configuration controlled 3d designs of mechanical parts and assemblies' ) ;
#107 = APPLICATION_PROTOCOL_DEFINITION ( 'international standard', 'config_control_design', 1994, #209 ) ;
#108 = PERSON_AND_ORGANIZATION ( #65, #91 ) ;
#109 = ORIENTED_EDGE ( 'NONE', *, *, #66, .F. ) ;
#110 = AXIS2_PLACEMENT_3D ( 'NONE', #78, #222, #45 ) ;
#111 = CC_DESIGN_PERSON_AND_ORGANIZATION_ASSIGNMENT ( #84, #126, ( #71 ) ) ;
#112 = AXIS2_PLACEMENT_3D ( 'NONE', #123, #219, #245 ) ;
#113 = PERSON_AND_ORGANIZATION ( #65, #91 ) ;
#114 = CYLINDRICAL_SURFACE ( 'NONE', #29, 2.750000000000000000 ) ;
#115 = CLOSED_SHELL ( 'NONE', ( #21, #47, #172, #236, #229, #169, #87 ) ) ;
#116 = EDGE_CURVE ( 'NONE', #147, #230, #232, .T. ) ;
#117 = EDGE_LOOP ( 'NONE', ( #153, #192 ) ) ;
#118 = EDGE_LOOP ( 'NONE', ( #253, #216, #73, #237 ) ) ;
#119 = CARTESIAN_POINT ( 'NONE',  ( 0.000000000000000000, 0.000000000000000000, 3.000000000000000000 ) ) ;
#120 = CIRCLE ( 'NONE', #110, 2.750000000000000000 ) ;
#121 = AXIS2_PLACEMENT_3D ( 'NONE', #64, #24, #60 ) ;
#122 = CARTESIAN_POINT ( 'NONE',  ( -2.750000000000000000, 0.000000000000000000, 3.000000000000000000 ) ) ;
#123 = CARTESIAN_POINT ( 'NONE',  ( 0.000000000000000000, 0.000000000000000000, 0.000000000000000000 ) ) ;
#124 = DIRECTION ( 'NONE',  ( -0.000000000000000000, -0.000000000000000000, -1.000000000000000000 ) ) ;
#125 = PLANE ( 'NONE',  #22 ) ;
#126 = PERSON_AND_ORGANIZATION_ROLE ( 'design_owner' ) ;
#127 = PERSON_AND_ORGANIZATION_ROLE ( 'classification_officer' ) ;
#128 = APPROVAL_PERSON_ORGANIZATION ( #185, #189, #146 ) ;
#129 = APPROVAL_ROLE ( '' ) ;
#130 = VERTEX_POINT ( 'NONE', #10 ) ;
#131 = LOCAL_TIME ( 12, 42, 32.00000000000000000, #223 ) ;
#132 = CARTESIAN_POINT ( 'NONE',  ( 2.750000000000000000, 3.367778697655220519E-16, 125.0000000000000000 ) ) ;
#133 = VECTOR ( 'NONE', #124, 1000.000000000000000 ) ;
#134 =( GEOMETRIC_REPRESENTATION_CONTEXT ( 3 ) GLOBAL_UNCERTAINTY_ASSIGNED_CONTEXT ( ( #231 ) ) GLOBAL_UNIT_ASSIGNED_CONTEXT ( ( #248, #12, #208 ) ) REPRESENTATION_CONTEXT ( 'NONE', 'WORKASPACE' ) );
#135 = VERTEX_POINT ( 'NONE', #83 ) ;
#136 = CALENDAR_DATE ( 2023, 12, 2 ) ;
#137 = DIRECTION ( 'NONE',  ( 0.000000000000000000, 0.000000000000000000, 1.000000000000000000 ) ) ;
#138 = CARTESIAN_POINT ( 'NONE',  ( 5.000000000000000000, 6.123233995736766282E-16, 0.000000000000000000 ) ) ;
#139 = CARTESIAN_POINT ( 'NONE',  ( 0.000000000000000000, 0.000000000000000000, 3.000000000000000000 ) ) ;
#140 = DIRECTION ( 'NONE',  ( 0.000000000000000000, 0.000000000000000000, 1.000000000000000000 ) ) ;
#141 = DIRECTION ( 'NONE',  ( 0.000000000000000000, 0.000000000000000000, 1.000000000000000000 ) ) ;
#142 = VECTOR ( 'NONE', #27, 1000.000000000000000 ) ;
#143 = CIRCLE ( 'NONE', #35, 2.750000000000000000 ) ;
#144 = PERSON_AND_ORGANIZATION ( #65, #91 ) ;
#145 = LOCAL_TIME ( 12, 42, 32.00000000000000000, #175 ) ;
#146 = APPROVAL_ROLE ( '' ) ;
#147 = VERTEX_POINT ( 'NONE', #122 ) ;
#148 = CC_DESIGN_APPROVAL ( #95, ( #224 ) ) ;
#149 = PERSON_AND_ORGANIZATION_ROLE ( 'design_supplier' ) ;
#150 = ORIENTED_EDGE ( 'NONE', *, *, #43, .F. ) ;
#151 = EDGE_CURVE ( 'NONE', #170, #88, #210, .T. ) ;
#152 = AXIS2_PLACEMENT_3D ( 'NONE', #214, #49, #247 ) ;
#153 = ORIENTED_EDGE ( 'NONE', *, *, #105, .T. ) ;
#154 = APPROVAL_DATE_TIME ( #217, #95 ) ;
#155 = CC_DESIGN_PERSON_AND_ORGANIZATION_ASSIGNMENT ( #171, #149, ( #241 ) ) ;
#156 = EDGE_LOOP ( 'NONE', ( #251, #89, #70, #228 ) ) ;
#157 = DIRECTION ( 'NONE',  ( -1.000000000000000000, 0.000000000000000000, 0.000000000000000000 ) ) ;
#158 = FACE_OUTER_BOUND ( 'NONE', #156, .T. ) ;
#159 = CC_DESIGN_SECURITY_CLASSIFICATION ( #224, ( #241 ) ) ;
#160 = CARTESIAN_POINT ( 'NONE',  ( 0.000000000000000000, 0.000000000000000000, 125.0000000000000000 ) ) ;
#161 = AXIS2_PLACEMENT_3D ( 'NONE', #119, #42, #59 ) ;
#162 = APPROVAL ( #165, 'NEURÈENÝ' ) ;
#163 = DIRECTION ( 'NONE',  ( -1.000000000000000000, 0.000000000000000000, 0.000000000000000000 ) ) ;
#164 = CARTESIAN_POINT ( 'NONE',  ( 0.000000000000000000, 0.000000000000000000, 125.0000000000000000 ) ) ;
#165 = APPROVAL_STATUS ( 'not_yet_approved' ) ;
#166 = MECHANICAL_CONTEXT ( 'NONE', #106, 'mechanical' ) ;
#167 = DATE_TIME_ROLE ( 'creation_date' ) ;
#168 = EDGE_LOOP ( 'NONE', ( #54, #215 ) ) ;
#169 = ADVANCED_FACE ( 'NONE', ( #202 ), #44, .T. ) ;
#170 = VERTEX_POINT ( 'NONE', #218 ) ;
#171 = PERSON_AND_ORGANIZATION ( #65, #91 ) ;
#172 = ADVANCED_FACE ( 'NONE', ( #99 ), #183, .T. ) ;
#173 = EDGE_LOOP ( 'NONE', ( #234, #72, #196, #51 ) ) ;
#174 = ORIENTED_EDGE ( 'NONE', *, *, #151, .F. ) ;
#175 = COORDINATED_UNIVERSAL_TIME_OFFSET ( 1, 0, .AHEAD. ) ;
#176 = CC_DESIGN_APPROVAL ( #162, ( #225 ) ) ;
#177 = ORIENTED_EDGE ( 'NONE', *, *, #252, .T. ) ;
#178 = AXIS2_PLACEMENT_3D ( 'NONE', #239, #102, #100 ) ;
#179 = PLANE ( 'NONE',  #213 ) ;
#180 = CARTESIAN_POINT ( 'NONE',  ( 0.000000000000000000, 0.000000000000000000, 0.000000000000000000 ) ) ;
#181 = FACE_OUTER_BOUND ( 'NONE', #168, .T. ) ;
#182 = CC_DESIGN_PERSON_AND_ORGANIZATION_ASSIGNMENT ( #11, #86, ( #225 ) ) ;
#183 = CYLINDRICAL_SURFACE ( 'NONE', #161, 5.000000000000000000 ) ;
#184 = DIRECTION ( 'NONE',  ( 1.000000000000000000, 0.000000000000000000, 0.000000000000000000 ) ) ;
#185 = PERSON_AND_ORGANIZATION ( #65, #91 ) ;
#186 = MANIFOLD_SOLID_BREP ( 'Pøidat vysunutím3', #115 ) ;
#187 = CALENDAR_DATE ( 2023, 12, 2 ) ;
#188 = DIRECTION ( 'NONE',  ( 1.000000000000000000, 0.000000000000000000, 0.000000000000000000 ) ) ;
#189 = APPROVAL ( #227, 'NEURÈENÝ' ) ;
#190 = APPROVAL_PERSON_ORGANIZATION ( #254, #162, #129 ) ;
#191 = AXIS2_PLACEMENT_3D ( 'NONE', #199, #235, #198 ) ;
#192 = ORIENTED_EDGE ( 'NONE', *, *, #203, .T. ) ;
#193 = CC_DESIGN_DATE_AND_TIME_ASSIGNMENT ( #92, #167, ( #225 ) ) ;
#194 = EDGE_LOOP ( 'NONE', ( #174, #15 ) ) ;
#195 = APPROVAL_STATUS ( 'not_yet_approved' ) ;
#196 = ORIENTED_EDGE ( 'NONE', *, *, #62, .T. ) ;
#197 = CIRCLE ( 'NONE', #5, 5.000000000000000000 ) ;
#198 = DIRECTION ( 'NONE',  ( 1.000000000000000000, 0.000000000000000000, 0.000000000000000000 ) ) ;
#199 = CARTESIAN_POINT ( 'NONE',  ( 0.000000000000000000, 0.000000000000000000, 0.000000000000000000 ) ) ;
#200 = CARTESIAN_POINT ( 'NONE',  ( 2.750000000000000000, 3.367778697655220519E-16, 3.000000000000000000 ) ) ;
#201 = CIRCLE ( 'NONE', #85, 5.000000000000000000 ) ;
#202 = FACE_OUTER_BOUND ( 'NONE', #118, .T. ) ;
#203 = EDGE_CURVE ( 'NONE', #96, #135, #197, .T. ) ;
#204 = FACE_OUTER_BOUND ( 'NONE', #194, .T. ) ;
#205 = FACE_OUTER_BOUND ( 'NONE', #117, .T. ) ;
#206 = LOCAL_TIME ( 12, 42, 32.00000000000000000, #31 ) ;
#207 = DIRECTION ( 'NONE',  ( -0.000000000000000000, -0.000000000000000000, -1.000000000000000000 ) ) ;
#208 =( NAMED_UNIT ( * ) SI_UNIT ( $, .STERADIAN. ) SOLID_ANGLE_UNIT ( ) );
#209 = APPLICATION_CONTEXT ( 'configuration controlled 3d designs of mechanical parts and assemblies' ) ;
#210 = CIRCLE ( 'NONE', #112, 5.000000000000000000 ) ;
#211 = CC_DESIGN_PERSON_AND_ORGANIZATION_ASSIGNMENT ( #144, #127, ( #224 ) ) ;
#212 = DATE_AND_TIME ( #48, #80 ) ;
#213 = AXIS2_PLACEMENT_3D ( 'NONE', #6, #140, #63 ) ;
#214 = CARTESIAN_POINT ( 'NONE',  ( 0.000000000000000000, 0.000000000000000000, 0.000000000000000000 ) ) ;
#215 = ORIENTED_EDGE ( 'NONE', *, *, #66, .T. ) ;
#216 = ORIENTED_EDGE ( 'NONE', *, *, #52, .F. ) ;
#217 = DATE_AND_TIME ( #57, #145 ) ;
#218 = CARTESIAN_POINT ( 'NONE',  ( -5.000000000000000000, 0.000000000000000000, 0.000000000000000000 ) ) ;
#219 = DIRECTION ( 'NONE',  ( 0.000000000000000000, 0.000000000000000000, 1.000000000000000000 ) ) ;
#220 = DIRECTION ( 'NONE',  ( 0.000000000000000000, 0.000000000000000000, 1.000000000000000000 ) ) ;
#221 = CARTESIAN_POINT ( 'NONE',  ( 0.000000000000000000, 0.000000000000000000, 3.000000000000000000 ) ) ;
#222 = DIRECTION ( 'NONE',  ( 0.000000000000000000, 0.000000000000000000, 1.000000000000000000 ) ) ;
#223 = COORDINATED_UNIVERSAL_TIME_OFFSET ( 1, 0, .AHEAD. ) ;
#224 = SECURITY_CLASSIFICATION ( '', '', #233 ) ;
#225 = PRODUCT_DEFINITION ( 'NEZNÁMÝ', '', #241, #240 ) ;
#226 = APPROVAL_PERSON_ORGANIZATION ( #113, #95, #18 ) ;
#227 = APPROVAL_STATUS ( 'not_yet_approved' ) ;
#228 = ORIENTED_EDGE ( 'NONE', *, *, #62, .F. ) ;
#229 = ADVANCED_FACE ( 'NONE', ( #204 ), #26, .F. ) ;
#230 = VERTEX_POINT ( 'NONE', #200 ) ;
#231 = UNCERTAINTY_MEASURE_WITH_UNIT (LENGTH_MEASURE( 1.000000000000000082E-05 ), #248, 'distance_accuracy_value', 'NONE');
#232 = CIRCLE ( 'NONE', #121, 2.750000000000000000 ) ;
#233 = SECURITY_CLASSIFICATION_LEVEL ( 'unclassified' ) ;
#234 = ORIENTED_EDGE ( 'NONE', *, *, #79, .F. ) ;
#235 = DIRECTION ( 'NONE',  ( 0.000000000000000000, 0.000000000000000000, 1.000000000000000000 ) ) ;
#236 = ADVANCED_FACE ( 'NONE', ( #81, #205 ), #179, .T. ) ;
#237 = ORIENTED_EDGE ( 'NONE', *, *, #116, .T. ) ;
#238 = FACE_OUTER_BOUND ( 'NONE', #75, .T. ) ;
#239 = CARTESIAN_POINT ( 'NONE',  ( 0.000000000000000000, 0.000000000000000000, 125.0000000000000000 ) ) ;
#240 = DESIGN_CONTEXT ( 'detailed design', #209, 'design' ) ;
#241 = PRODUCT_DEFINITION_FORMATION_WITH_SPECIFIED_SOURCE ( 'LIBOVOLNÝ', '', #71, .NOT_KNOWN. ) ;
#242 = DIRECTION ( 'NONE',  ( 1.000000000000000000, 0.000000000000000000, 0.000000000000000000 ) ) ;
#243 = AXIS2_PLACEMENT_3D ( 'NONE', #180, #137, #8 ) ;
#244 = DIRECTION ( 'NONE',  ( -0.000000000000000000, -0.000000000000000000, -1.000000000000000000 ) ) ;
#245 = DIRECTION ( 'NONE',  ( 1.000000000000000000, 0.000000000000000000, 0.000000000000000000 ) ) ;
#246 = DATE_TIME_ROLE ( 'classification_date' ) ;
#247 = DIRECTION ( 'NONE',  ( 1.000000000000000000, 0.000000000000000000, 0.000000000000000000 ) ) ;
#248 =( LENGTH_UNIT ( ) NAMED_UNIT ( * ) SI_UNIT ( .MILLI., .METRE. ) );
#249 = CC_DESIGN_DATE_AND_TIME_ASSIGNMENT ( #37, #246, ( #224 ) ) ;
#250 = VECTOR ( 'NONE', #4, 1000.000000000000000 ) ;
#251 = ORIENTED_EDGE ( 'NONE', *, *, #203, .F. ) ;
#252 = EDGE_CURVE ( 'NONE', #230, #147, #143, .T. ) ;
#253 = ORIENTED_EDGE ( 'NONE', *, *, #2, .F. ) ;
#254 = PERSON_AND_ORGANIZATION ( #65, #91 ) ;
#255 = VERTEX_POINT ( 'NONE', #67 ) ;
ENDSEC;
END-ISO-10303-21;
