ISO-10303-21;
HEADER;
FILE_DESCRIPTION (( 'STEP AP203' ),
    '1' );
FILE_NAME ('d2cd.STEP',
    '2023-02-12T11:59:54',
    ( '' ),
    ( '' ),
    'SwSTEP 2.0',
    'SolidWorks 2019',
    '' );
FILE_SCHEMA (( 'CONFIG_CONTROL_DESIGN' ));
ENDSEC;

DATA;
#1 = DIRECTION ( 'NONE',  ( 0.000000000000000000, 0.000000000000000000, 1.000000000000000000 ) ) ;
#2 = ORIENTED_EDGE ( 'NONE', *, *, #178, .T. ) ;
#3 = VECTOR ( 'NONE', #224, 1000.000000000000000 ) ;
#4 = CARTESIAN_POINT ( 'NONE',  ( 0.000000000000000000, 0.000000000000000000, 500.0000000000000000 ) ) ;
#5 = CLOSED_SHELL ( 'NONE', ( #246, #125, #90, #38, #94, #46, #128 ) ) ;
#6 = AXIS2_PLACEMENT_3D ( 'NONE', #134, #241, #99 ) ;
#7 = SHAPE_DEFINITION_REPRESENTATION ( #207, #181 ) ;
#8 = CC_DESIGN_DATE_AND_TIME_ASSIGNMENT ( #211, #177, ( #85 ) ) ;
#9 = EDGE_CURVE ( 'NONE', #162, #183, #175, .T. ) ;
#10 = DIRECTION ( 'NONE',  ( 0.000000000000000000, 0.000000000000000000, 1.000000000000000000 ) ) ;
#11 = AXIS2_PLACEMENT_3D ( 'NONE', #4, #122, #169 ) ;
#12 = DATE_AND_TIME ( #194, #197 ) ;
#13 = APPROVAL_STATUS ( 'not_yet_approved' ) ;
#14 = DIRECTION ( 'NONE',  ( 0.000000000000000000, 0.000000000000000000, 1.000000000000000000 ) ) ;
#15 = CARTESIAN_POINT ( 'NONE',  ( 0.000000000000000000, 0.000000000000000000, 0.000000000000000000 ) ) ;
#16 = CARTESIAN_POINT ( 'NONE',  ( 0.000000000000000000, 0.000000000000000000, 500.0000000000000000 ) ) ;
#17 = ORIENTED_EDGE ( 'NONE', *, *, #152, .F. ) ;
#18 = CC_DESIGN_APPROVAL ( #203, ( #85 ) ) ;
#19 = CARTESIAN_POINT ( 'NONE',  ( 0.000000000000000000, 0.000000000000000000, 3.000000000000000000 ) ) ;
#20 = ORIENTED_EDGE ( 'NONE', *, *, #34, .T. ) ;
#21 = DATE_AND_TIME ( #87, #140 ) ;
#22 = VERTEX_POINT ( 'NONE', #103 ) ;
#23 = EDGE_CURVE ( 'NONE', #45, #22, #154, .T. ) ;
#24 = CALENDAR_DATE ( 2023, 12, 2 ) ;
#25 = DIRECTION ( 'NONE',  ( -0.000000000000000000, -0.000000000000000000, -1.000000000000000000 ) ) ;
#26 =( LENGTH_UNIT ( ) NAMED_UNIT ( * ) SI_UNIT ( .MILLI., .METRE. ) );
#27 = PERSON ( 'NEURÈENÝ', 'NEURÈENÝ', 'NEURÈENÝ', ('NEURÈENÝ'), ('NEURÈENÝ'), ('NEURÈENÝ') ) ;
#28 = PERSON_AND_ORGANIZATION ( #27, #166 ) ;
#29 = AXIS2_PLACEMENT_3D ( 'NONE', #47, #14, #209 ) ;
#30 = LOCAL_TIME ( 12, 59, 54.00000000000000000, #227 ) ;
#31 = EDGE_CURVE ( 'NONE', #95, #189, #142, .T. ) ;
#32 = CIRCLE ( 'NONE', #245, 4.000000000000000000 ) ;
#33 = CIRCLE ( 'NONE', #186, 4.000000000000000000 ) ;
#34 = EDGE_CURVE ( 'NONE', #22, #45, #205, .T. ) ;
#35 = DIRECTION ( 'NONE',  ( -0.000000000000000000, -0.000000000000000000, -1.000000000000000000 ) ) ;
#36 = ORIENTED_EDGE ( 'NONE', *, *, #113, .F. ) ;
#37 = PLANE ( 'NONE',  #59 ) ;
#38 = ADVANCED_FACE ( 'NONE', ( #250, #255 ), #37, .T. ) ;
#39 = FACE_OUTER_BOUND ( 'NONE', #97, .T. ) ;
#40 = ORIENTED_EDGE ( 'NONE', *, *, #123, .T. ) ;
#41 = DIRECTION ( 'NONE',  ( -0.000000000000000000, -0.000000000000000000, -1.000000000000000000 ) ) ;
#42 = EDGE_LOOP ( 'NONE', ( #237, #144, #200, #182 ) ) ;
#43 = CALENDAR_DATE ( 2023, 12, 2 ) ;
#44 = DIRECTION ( 'NONE',  ( 1.000000000000000000, 0.000000000000000000, 0.000000000000000000 ) ) ;
#45 = VERTEX_POINT ( 'NONE', #136 ) ;
#46 = ADVANCED_FACE ( 'NONE', ( #70 ), #252, .T. ) ;
#47 = CARTESIAN_POINT ( 'NONE',  ( 0.000000000000000000, 0.000000000000000000, 3.000000000000000000 ) ) ;
#48 = UNCERTAINTY_MEASURE_WITH_UNIT (LENGTH_MEASURE( 1.000000000000000082E-05 ), #26, 'distance_accuracy_value', 'NONE');
#49 = CARTESIAN_POINT ( 'NONE',  ( 2.100000000000000089, 2.571758278209441464E-16, 500.0000000000000000 ) ) ;
#50 = DIRECTION ( 'NONE',  ( 1.000000000000000000, 0.000000000000000000, -0.000000000000000000 ) ) ;
#51 = ORIENTED_EDGE ( 'NONE', *, *, #249, .F. ) ;
#52 = FACE_OUTER_BOUND ( 'NONE', #42, .T. ) ;
#53 = AXIS2_PLACEMENT_3D ( 'NONE', #167, #242, #61 ) ;
#54 = ORIENTED_EDGE ( 'NONE', *, *, #31, .T. ) ;
#55 = DIRECTION ( 'NONE',  ( -0.000000000000000000, -0.000000000000000000, -1.000000000000000000 ) ) ;
#56 = LINE ( 'NONE', #220, #240 ) ;
#57 = EDGE_LOOP ( 'NONE', ( #100, #74 ) ) ;
#58 = APPLICATION_CONTEXT ( 'configuration controlled 3d designs of mechanical parts and assemblies' ) ;
#59 = AXIS2_PLACEMENT_3D ( 'NONE', #139, #75, #50 ) ;
#60 = PRODUCT_DEFINITION_FORMATION_WITH_SPECIFIED_SOURCE ( 'LIBOVOLNÝ', '', #78, .NOT_KNOWN. ) ;
#61 = DIRECTION ( 'NONE',  ( 1.000000000000000000, 0.000000000000000000, 0.000000000000000000 ) ) ;
#62 = LINE ( 'NONE', #145, #3 ) ;
#63 = PERSON_AND_ORGANIZATION ( #27, #166 ) ;
#64 = APPROVAL_PERSON_ORGANIZATION ( #63, #223, #150 ) ;
#65 = LOCAL_TIME ( 12, 59, 54.00000000000000000, #230 ) ;
#66 = APPLICATION_PROTOCOL_DEFINITION ( 'international standard', 'config_control_design', 1994, #58 ) ;
#67 = COORDINATED_UNIVERSAL_TIME_OFFSET ( 1, 0, .AHEAD. ) ;
#68 = ORIENTED_EDGE ( 'NONE', *, *, #206, .T. ) ;
#69 = CC_DESIGN_DATE_AND_TIME_ASSIGNMENT ( #21, #101, ( #173 ) ) ;
#70 = FACE_OUTER_BOUND ( 'NONE', #253, .T. ) ;
#71 = PERSON_AND_ORGANIZATION_ROLE ( 'classification_officer' ) ;
#72 = CARTESIAN_POINT ( 'NONE',  ( -2.100000000000000089, 0.000000000000000000, 3.000000000000000000 ) ) ;
#73 = FACE_OUTER_BOUND ( 'NONE', #204, .T. ) ;
#74 = ORIENTED_EDGE ( 'NONE', *, *, #178, .F. ) ;
#75 = DIRECTION ( 'NONE',  ( 0.000000000000000000, 0.000000000000000000, 1.000000000000000000 ) ) ;
#76 = LINE ( 'NONE', #235, #86 ) ;
#77 = EDGE_CURVE ( 'NONE', #162, #95, #76, .T. ) ;
#78 = PRODUCT ( 'd2cd', 'd2cd', '', ( #195 ) ) ;
#79 = MANIFOLD_SOLID_BREP ( 'Pøidat vysunutím3', #5 ) ;
#80 = CARTESIAN_POINT ( 'NONE',  ( 2.100000000000000089, 2.571758278209441464E-16, 3.000000000000000000 ) ) ;
#81 = SECURITY_CLASSIFICATION_LEVEL ( 'unclassified' ) ;
#82 = PERSON_AND_ORGANIZATION ( #27, #166 ) ;
#83 = PERSON_AND_ORGANIZATION ( #27, #166 ) ;
#84 = PERSON_AND_ORGANIZATION_ROLE ( 'creator' ) ;
#85 = PRODUCT_DEFINITION ( 'NEZNÁMÝ', '', #60, #107 ) ;
#86 = VECTOR ( 'NONE', #232, 1000.000000000000000 ) ;
#87 = CALENDAR_DATE ( 2023, 12, 2 ) ;
#88 = EDGE_LOOP ( 'NONE', ( #216, #68, #40, #51 ) ) ;
#89 = PERSON_AND_ORGANIZATION_ROLE ( 'design_supplier' ) ;
#90 = ADVANCED_FACE ( 'NONE', ( #52 ), #219, .T. ) ;
#91 = VERTEX_POINT ( 'NONE', #198 ) ;
#92 = DIRECTION ( 'NONE',  ( 0.000000000000000000, 0.000000000000000000, 1.000000000000000000 ) ) ;
#93 = APPROVAL ( #174, 'NEURÈENÝ' ) ;
#94 = ADVANCED_FACE ( 'NONE', ( #73 ), #108, .F. ) ;
#95 = VERTEX_POINT ( 'NONE', #72 ) ;
#96 = DIRECTION ( 'NONE',  ( 0.000000000000000000, 0.000000000000000000, 1.000000000000000000 ) ) ;
#97 = EDGE_LOOP ( 'NONE', ( #138, #238 ) ) ;
#98 = APPROVAL_STATUS ( 'not_yet_approved' ) ;
#99 = DIRECTION ( 'NONE',  ( 1.000000000000000000, 0.000000000000000000, 0.000000000000000000 ) ) ;
#100 = ORIENTED_EDGE ( 'NONE', *, *, #31, .F. ) ;
#101 = DATE_TIME_ROLE ( 'classification_date' ) ;
#102 = CARTESIAN_POINT ( 'NONE',  ( 4.000000000000000000, 4.898587196589412829E-16, 0.000000000000000000 ) ) ;
#103 = CARTESIAN_POINT ( 'NONE',  ( -4.000000000000000000, 0.000000000000000000, 3.000000000000000000 ) ) ;
#104 = CC_DESIGN_PERSON_AND_ORGANIZATION_ASSIGNMENT ( #83, #71, ( #173 ) ) ;
#105 = APPROVAL_ROLE ( '' ) ;
#106 = AXIS2_PLACEMENT_3D ( 'NONE', #251, #109, #217 ) ;
#107 = DESIGN_CONTEXT ( 'detailed design', #58, 'design' ) ;
#108 = PLANE ( 'NONE',  #106 ) ;
#109 = DIRECTION ( 'NONE',  ( 0.000000000000000000, 0.000000000000000000, 1.000000000000000000 ) ) ;
#110 = AXIS2_PLACEMENT_3D ( 'NONE', #192, #10, #151 ) ;
#111 = CC_DESIGN_SECURITY_CLASSIFICATION ( #173, ( #60 ) ) ;
#112 = ORIENTED_EDGE ( 'NONE', *, *, #9, .F. ) ;
#113 = EDGE_CURVE ( 'NONE', #91, #212, #33, .T. ) ;
#114 = CYLINDRICAL_SURFACE ( 'NONE', #233, 4.000000000000000000 ) ;
#115 = ORIENTED_EDGE ( 'NONE', *, *, #123, .F. ) ;
#116 = CARTESIAN_POINT ( 'NONE',  ( 0.000000000000000000, 0.000000000000000000, 500.0000000000000000 ) ) ;
#117 = ORIENTED_EDGE ( 'NONE', *, *, #187, .F. ) ;
#118 = PLANE ( 'NONE',  #244 ) ;
#119 = LOCAL_TIME ( 12, 59, 54.00000000000000000, #67 ) ;
#120 = LINE ( 'NONE', #172, #147 ) ;
#121 = CC_DESIGN_PERSON_AND_ORGANIZATION_ASSIGNMENT ( #156, #89, ( #60 ) ) ;
#122 = DIRECTION ( 'NONE',  ( -0.000000000000000000, -0.000000000000000000, -1.000000000000000000 ) ) ;
#123 = EDGE_CURVE ( 'NONE', #212, #91, #32, .T. ) ;
#124 = APPROVAL_DATE_TIME ( #229, #223 ) ;
#125 = ADVANCED_FACE ( 'NONE', ( #161 ), #114, .T. ) ;
#126 = AXIS2_PLACEMENT_3D ( 'NONE', #19, #1, #213 ) ;
#127 = APPLICATION_PROTOCOL_DEFINITION ( 'international standard', 'config_control_design', 1994, #133 ) ;
#128 = ADVANCED_FACE ( 'NONE', ( #39 ), #118, .T. ) ;
#129 = CARTESIAN_POINT ( 'NONE',  ( 0.000000000000000000, 0.000000000000000000, 0.000000000000000000 ) ) ;
#130 = APPROVAL_DATE_TIME ( #12, #93 ) ;
#131 = EDGE_LOOP ( 'NONE', ( #20, #179 ) ) ;
#132 = CIRCLE ( 'NONE', #6, 2.100000000000000089 ) ;
#133 = APPLICATION_CONTEXT ( 'configuration controlled 3d designs of mechanical parts and assemblies' ) ;
#134 = CARTESIAN_POINT ( 'NONE',  ( 0.000000000000000000, 0.000000000000000000, 500.0000000000000000 ) ) ;
#135 = PERSON_AND_ORGANIZATION ( #27, #166 ) ;
#136 = CARTESIAN_POINT ( 'NONE',  ( 4.000000000000000000, 4.898587196589412829E-16, 3.000000000000000000 ) ) ;
#137 = COORDINATED_UNIVERSAL_TIME_OFFSET ( 1, 0, .AHEAD. ) ;
#138 = ORIENTED_EDGE ( 'NONE', *, *, #9, .T. ) ;
#139 = CARTESIAN_POINT ( 'NONE',  ( 0.000000000000000000, 0.000000000000000000, 3.000000000000000000 ) ) ;
#140 = LOCAL_TIME ( 12, 59, 54.00000000000000000, #137 ) ;
#141 = DIRECTION ( 'NONE',  ( -1.000000000000000000, 0.000000000000000000, 0.000000000000000000 ) ) ;
#142 = CIRCLE ( 'NONE', #110, 2.100000000000000089 ) ;
#143 = AXIS2_PLACEMENT_3D ( 'NONE', #129, #228, #44 ) ;
#144 = ORIENTED_EDGE ( 'NONE', *, *, #34, .F. ) ;
#145 = CARTESIAN_POINT ( 'NONE',  ( -4.000000000000000000, 0.000000000000000000, 3.000000000000000000 ) ) ;
#146 = DIRECTION ( 'NONE',  ( 0.000000000000000000, 0.000000000000000000, 1.000000000000000000 ) ) ;
#147 = VECTOR ( 'NONE', #25, 1000.000000000000000 ) ;
#148 = AXIS2_PLACEMENT_3D ( 'NONE', #231, #35, #163 ) ;
#149 =( NAMED_UNIT ( * ) PLANE_ANGLE_UNIT ( ) SI_UNIT ( $, .RADIAN. ) );
#150 = APPROVAL_ROLE ( '' ) ;
#151 = DIRECTION ( 'NONE',  ( 1.000000000000000000, 0.000000000000000000, 0.000000000000000000 ) ) ;
#152 = EDGE_CURVE ( 'NONE', #183, #189, #56, .T. ) ;
#153 = APPROVAL_ROLE ( '' ) ;
#154 = CIRCLE ( 'NONE', #221, 4.000000000000000000 ) ;
#155 = CC_DESIGN_APPROVAL ( #223, ( #173 ) ) ;
#156 = PERSON_AND_ORGANIZATION ( #27, #166 ) ;
#157 = DIRECTION ( 'NONE',  ( -0.000000000000000000, -0.000000000000000000, -1.000000000000000000 ) ) ;
#158 = CARTESIAN_POINT ( 'NONE',  ( 0.000000000000000000, 0.000000000000000000, 0.000000000000000000 ) ) ;
#159 = CC_DESIGN_PERSON_AND_ORGANIZATION_ASSIGNMENT ( #236, #190, ( #60 ) ) ;
#160 = ORIENTED_EDGE ( 'NONE', *, *, #77, .F. ) ;
#161 = FACE_OUTER_BOUND ( 'NONE', #88, .T. ) ;
#162 = VERTEX_POINT ( 'NONE', #202 ) ;
#163 = DIRECTION ( 'NONE',  ( -1.000000000000000000, 0.000000000000000000, 0.000000000000000000 ) ) ;
#164 = DIRECTION ( 'NONE',  ( 1.000000000000000000, 0.000000000000000000, 0.000000000000000000 ) ) ;
#165 = ORIENTED_EDGE ( 'NONE', *, *, #152, .T. ) ;
#166 = ORGANIZATION ( 'NEURÈENÝ', 'NEURÈENÝ', '' ) ;
#167 = CARTESIAN_POINT ( 'NONE',  ( 0.000000000000000000, 0.000000000000000000, 500.0000000000000000 ) ) ;
#168 = APPROVAL_DATE_TIME ( #191, #203 ) ;
#169 = DIRECTION ( 'NONE',  ( -1.000000000000000000, 0.000000000000000000, 0.000000000000000000 ) ) ;
#170 = PRODUCT_RELATED_PRODUCT_CATEGORY ( 'detail', '', ( #78 ) ) ;
#171 = CARTESIAN_POINT ( 'NONE',  ( 0.000000000000000000, 0.000000000000000000, 3.000000000000000000 ) ) ;
#172 = CARTESIAN_POINT ( 'NONE',  ( 4.000000000000000000, 4.898587196589412829E-16, 3.000000000000000000 ) ) ;
#173 = SECURITY_CLASSIFICATION ( '', '', #81 ) ;
#174 = APPROVAL_STATUS ( 'not_yet_approved' ) ;
#175 = CIRCLE ( 'NONE', #53, 2.100000000000000089 ) ;
#176 =( NAMED_UNIT ( * ) SI_UNIT ( $, .STERADIAN. ) SOLID_ANGLE_UNIT ( ) );
#177 = DATE_TIME_ROLE ( 'creation_date' ) ;
#178 = EDGE_CURVE ( 'NONE', #189, #95, #254, .T. ) ;
#179 = ORIENTED_EDGE ( 'NONE', *, *, #23, .T. ) ;
#180 = APPROVAL_PERSON_ORGANIZATION ( #28, #203, #153 ) ;
#181 = ADVANCED_BREP_SHAPE_REPRESENTATION ( 'd2cd', ( #79, #143 ), #222 ) ;
#182 = ORIENTED_EDGE ( 'NONE', *, *, #113, .T. ) ;
#183 = VERTEX_POINT ( 'NONE', #49 ) ;
#184 = DIRECTION ( 'NONE',  ( 1.000000000000000000, 0.000000000000000000, -0.000000000000000000 ) ) ;
#185 = APPROVAL_PERSON_ORGANIZATION ( #82, #93, #105 ) ;
#186 = AXIS2_PLACEMENT_3D ( 'NONE', #15, #96, #199 ) ;
#187 = EDGE_CURVE ( 'NONE', #183, #162, #132, .T. ) ;
#188 = EDGE_LOOP ( 'NONE', ( #117, #165, #2, #160 ) ) ;
#189 = VERTEX_POINT ( 'NONE', #80 ) ;
#190 = PERSON_AND_ORGANIZATION_ROLE ( 'creator' ) ;
#191 = DATE_AND_TIME ( #24, #65 ) ;
#192 = CARTESIAN_POINT ( 'NONE',  ( 0.000000000000000000, 0.000000000000000000, 3.000000000000000000 ) ) ;
#193 = PERSON_AND_ORGANIZATION ( #27, #166 ) ;
#194 = CALENDAR_DATE ( 2023, 12, 2 ) ;
#195 = MECHANICAL_CONTEXT ( 'NONE', #133, 'mechanical' ) ;
#196 = CALENDAR_DATE ( 2023, 12, 2 ) ;
#197 = LOCAL_TIME ( 12, 59, 54.00000000000000000, #248 ) ;
#198 = CARTESIAN_POINT ( 'NONE',  ( -4.000000000000000000, 0.000000000000000000, 0.000000000000000000 ) ) ;
#199 = DIRECTION ( 'NONE',  ( 1.000000000000000000, 0.000000000000000000, 0.000000000000000000 ) ) ;
#200 = ORIENTED_EDGE ( 'NONE', *, *, #249, .T. ) ;
#201 = DIRECTION ( 'NONE',  ( 0.000000000000000000, 0.000000000000000000, 1.000000000000000000 ) ) ;
#202 = CARTESIAN_POINT ( 'NONE',  ( -2.100000000000000089, 0.000000000000000000, 500.0000000000000000 ) ) ;
#203 = APPROVAL ( #13, 'NEURÈENÝ' ) ;
#204 = EDGE_LOOP ( 'NONE', ( #36, #115 ) ) ;
#205 = CIRCLE ( 'NONE', #29, 4.000000000000000000 ) ;
#206 = EDGE_CURVE ( 'NONE', #45, #212, #120, .T. ) ;
#207 = PRODUCT_DEFINITION_SHAPE ( 'NONE', 'NONE',  #85 ) ;
#208 = CC_DESIGN_PERSON_AND_ORGANIZATION_ASSIGNMENT ( #193, #247, ( #78 ) ) ;
#209 = DIRECTION ( 'NONE',  ( 1.000000000000000000, 0.000000000000000000, 0.000000000000000000 ) ) ;
#210 = CC_DESIGN_APPROVAL ( #93, ( #60 ) ) ;
#211 = DATE_AND_TIME ( #196, #119 ) ;
#212 = VERTEX_POINT ( 'NONE', #102 ) ;
#213 = DIRECTION ( 'NONE',  ( 1.000000000000000000, 0.000000000000000000, 0.000000000000000000 ) ) ;
#214 = CC_DESIGN_PERSON_AND_ORGANIZATION_ASSIGNMENT ( #135, #84, ( #85 ) ) ;
#215 = DIRECTION ( 'NONE',  ( -1.000000000000000000, 0.000000000000000000, 0.000000000000000000 ) ) ;
#216 = ORIENTED_EDGE ( 'NONE', *, *, #23, .F. ) ;
#217 = DIRECTION ( 'NONE',  ( 1.000000000000000000, 0.000000000000000000, -0.000000000000000000 ) ) ;
#218 = ORIENTED_EDGE ( 'NONE', *, *, #77, .T. ) ;
#219 = CYLINDRICAL_SURFACE ( 'NONE', #148, 4.000000000000000000 ) ;
#220 = CARTESIAN_POINT ( 'NONE',  ( 2.100000000000000089, 2.571758278209441464E-16, 500.0000000000000000 ) ) ;
#221 = AXIS2_PLACEMENT_3D ( 'NONE', #171, #146, #226 ) ;
#222 =( GEOMETRIC_REPRESENTATION_CONTEXT ( 3 ) GLOBAL_UNCERTAINTY_ASSIGNED_CONTEXT ( ( #48 ) ) GLOBAL_UNIT_ASSIGNED_CONTEXT ( ( #26, #149, #176 ) ) REPRESENTATION_CONTEXT ( 'NONE', 'WORKASPACE' ) );
#223 = APPROVAL ( #98, 'NEURÈENÝ' ) ;
#224 = DIRECTION ( 'NONE',  ( -0.000000000000000000, -0.000000000000000000, -1.000000000000000000 ) ) ;
#225 = AXIS2_PLACEMENT_3D ( 'NONE', #16, #157, #215 ) ;
#226 = DIRECTION ( 'NONE',  ( 1.000000000000000000, 0.000000000000000000, 0.000000000000000000 ) ) ;
#227 = COORDINATED_UNIVERSAL_TIME_OFFSET ( 1, 0, .AHEAD. ) ;
#228 = DIRECTION ( 'NONE',  ( 0.000000000000000000, 0.000000000000000000, 1.000000000000000000 ) ) ;
#229 = DATE_AND_TIME ( #43, #30 ) ;
#230 = COORDINATED_UNIVERSAL_TIME_OFFSET ( 1, 0, .AHEAD. ) ;
#231 = CARTESIAN_POINT ( 'NONE',  ( 0.000000000000000000, 0.000000000000000000, 3.000000000000000000 ) ) ;
#232 = DIRECTION ( 'NONE',  ( -0.000000000000000000, -0.000000000000000000, -1.000000000000000000 ) ) ;
#233 = AXIS2_PLACEMENT_3D ( 'NONE', #234, #55, #141 ) ;
#234 = CARTESIAN_POINT ( 'NONE',  ( 0.000000000000000000, 0.000000000000000000, 3.000000000000000000 ) ) ;
#235 = CARTESIAN_POINT ( 'NONE',  ( -2.100000000000000089, 0.000000000000000000, 500.0000000000000000 ) ) ;
#236 = PERSON_AND_ORGANIZATION ( #27, #166 ) ;
#237 = ORIENTED_EDGE ( 'NONE', *, *, #206, .F. ) ;
#238 = ORIENTED_EDGE ( 'NONE', *, *, #187, .T. ) ;
#239 = FACE_OUTER_BOUND ( 'NONE', #188, .T. ) ;
#240 = VECTOR ( 'NONE', #41, 1000.000000000000000 ) ;
#241 = DIRECTION ( 'NONE',  ( 0.000000000000000000, 0.000000000000000000, 1.000000000000000000 ) ) ;
#242 = DIRECTION ( 'NONE',  ( 0.000000000000000000, 0.000000000000000000, 1.000000000000000000 ) ) ;
#243 = CYLINDRICAL_SURFACE ( 'NONE', #11, 2.100000000000000089 ) ;
#244 = AXIS2_PLACEMENT_3D ( 'NONE', #116, #201, #184 ) ;
#245 = AXIS2_PLACEMENT_3D ( 'NONE', #158, #92, #164 ) ;
#246 = ADVANCED_FACE ( 'NONE', ( #239 ), #243, .T. ) ;
#247 = PERSON_AND_ORGANIZATION_ROLE ( 'design_owner' ) ;
#248 = COORDINATED_UNIVERSAL_TIME_OFFSET ( 1, 0, .AHEAD. ) ;
#249 = EDGE_CURVE ( 'NONE', #22, #91, #62, .T. ) ;
#250 = FACE_BOUND ( 'NONE', #57, .T. ) ;
#251 = CARTESIAN_POINT ( 'NONE',  ( 0.000000000000000000, 0.000000000000000000, 0.000000000000000000 ) ) ;
#252 = CYLINDRICAL_SURFACE ( 'NONE', #225, 2.100000000000000089 ) ;
#253 = EDGE_LOOP ( 'NONE', ( #17, #112, #218, #54 ) ) ;
#254 = CIRCLE ( 'NONE', #126, 2.100000000000000089 ) ;
#255 = FACE_OUTER_BOUND ( 'NONE', #131, .T. ) ;
ENDSEC;
END-ISO-10303-21;
