ISO-10303-21;
HEADER;
FILE_DESCRIPTION (( 'STEP AP203' ),
    '1' );
FILE_NAME ('1f5a.STEP',
    '2023-02-12T11:19:06',
    ( '' ),
    ( '' ),
    'SwSTEP 2.0',
    'SolidWorks 2019',
    '' );
FILE_SCHEMA (( 'CONFIG_CONTROL_DESIGN' ));
ENDSEC;

DATA;
#1 = LINE ( 'NONE', #82, #150 ) ;
#2 = DATE_AND_TIME ( #134, #113 ) ;
#3 = DIRECTION ( 'NONE',  ( 0.000000000000000000, 0.000000000000000000, 1.000000000000000000 ) ) ;
#4 = APPROVAL_DATE_TIME ( #199, #118 ) ;
#5 = ORIENTED_EDGE ( 'NONE', *, *, #230, .F. ) ;
#6 = DATE_TIME_ROLE ( 'classification_date' ) ;
#7 = APPROVAL ( #56, 'NEURÈENÝ' ) ;
#8 = EDGE_CURVE ( 'NONE', #44, #85, #122, .T. ) ;
#9 = DIRECTION ( 'NONE',  ( 0.000000000000000000, 0.000000000000000000, 1.000000000000000000 ) ) ;
#10 = CARTESIAN_POINT ( 'NONE',  ( 0.000000000000000000, 0.000000000000000000, 500.0000000000000000 ) ) ;
#11 = AXIS2_PLACEMENT_3D ( 'NONE', #200, #166, #123 ) ;
#12 = CYLINDRICAL_SURFACE ( 'NONE', #48, 7.000000000000000000 ) ;
#13 = DIRECTION ( 'NONE',  ( -0.000000000000000000, -0.000000000000000000, -1.000000000000000000 ) ) ;
#14 = ORIENTED_EDGE ( 'NONE', *, *, #142, .F. ) ;
#15 = CC_DESIGN_APPROVAL ( #87, ( #170 ) ) ;
#16 = MANIFOLD_SOLID_BREP ( 'Pøidat vysunutím3', #88 ) ;
#17 = PERSON_AND_ORGANIZATION ( #68, #73 ) ;
#18 = CARTESIAN_POINT ( 'NONE',  ( 7.000000000000000000, 8.572527594031473190E-16, 0.000000000000000000 ) ) ;
#19 = COORDINATED_UNIVERSAL_TIME_OFFSET ( 1, 0, .AHEAD. ) ;
#20 = PERSON_AND_ORGANIZATION_ROLE ( 'design_supplier' ) ;
#21 = CALENDAR_DATE ( 2023, 12, 2 ) ;
#22 = AXIS2_PLACEMENT_3D ( 'NONE', #59, #135, #119 ) ;
#23 = APPROVAL_ROLE ( '' ) ;
#24 = CARTESIAN_POINT ( 'NONE',  ( 7.000000000000000000, 8.572527594031473190E-16, 5.000000000000000000 ) ) ;
#25 = CARTESIAN_POINT ( 'NONE',  ( 0.000000000000000000, 0.000000000000000000, 500.0000000000000000 ) ) ;
#26 = DIRECTION ( 'NONE',  ( -0.000000000000000000, -0.000000000000000000, -1.000000000000000000 ) ) ;
#27 = APPLICATION_PROTOCOL_DEFINITION ( 'international standard', 'config_control_design', 1994, #159 ) ;
#28 = FACE_OUTER_BOUND ( 'NONE', #140, .T. ) ;
#29 = CC_DESIGN_PERSON_AND_ORGANIZATION_ASSIGNMENT ( #243, #215, ( #129 ) ) ;
#30 = EDGE_LOOP ( 'NONE', ( #55, #181 ) ) ;
#31 = APPROVAL_PERSON_ORGANIZATION ( #120, #118, #116 ) ;
#32 = CC_DESIGN_PERSON_AND_ORGANIZATION_ASSIGNMENT ( #233, #54, ( #170 ) ) ;
#33 = PRODUCT_DEFINITION_SHAPE ( 'NONE', 'NONE',  #129 ) ;
#34 = PRODUCT_RELATED_PRODUCT_CATEGORY ( 'detail', '', ( #190 ) ) ;
#35 = CARTESIAN_POINT ( 'NONE',  ( 4.000000000000000000, 4.898587196589412829E-16, 5.000000000000000000 ) ) ;
#36 = CC_DESIGN_SECURITY_CLASSIFICATION ( #170, ( #248 ) ) ;
#37 = CALENDAR_DATE ( 2023, 12, 2 ) ;
#38 = ADVANCED_BREP_SHAPE_REPRESENTATION ( '1f5a', ( #16, #195 ), #151 ) ;
#39 = VECTOR ( 'NONE', #26, 1000.000000000000000 ) ;
#40 = PERSON_AND_ORGANIZATION ( #68, #73 ) ;
#41 = APPLICATION_PROTOCOL_DEFINITION ( 'international standard', 'config_control_design', 1994, #115 ) ;
#42 = LINE ( 'NONE', #91, #186 ) ;
#43 = APPROVAL_PERSON_ORGANIZATION ( #251, #87, #188 ) ;
#44 = VERTEX_POINT ( 'NONE', #250 ) ;
#45 = ADVANCED_FACE ( 'NONE', ( #146 ), #202, .T. ) ;
#46 = AXIS2_PLACEMENT_3D ( 'NONE', #25, #79, #220 ) ;
#47 = ORIENTED_EDGE ( 'NONE', *, *, #178, .F. ) ;
#48 = AXIS2_PLACEMENT_3D ( 'NONE', #89, #145, #97 ) ;
#49 = DIRECTION ( 'NONE',  ( 1.000000000000000000, 0.000000000000000000, 0.000000000000000000 ) ) ;
#50 = ORIENTED_EDGE ( 'NONE', *, *, #125, .T. ) ;
#51 = AXIS2_PLACEMENT_3D ( 'NONE', #163, #238, #66 ) ;
#52 = ORIENTED_EDGE ( 'NONE', *, *, #138, .T. ) ;
#53 = AXIS2_PLACEMENT_3D ( 'NONE', #219, #221, #209 ) ;
#54 = PERSON_AND_ORGANIZATION_ROLE ( 'classification_officer' ) ;
#55 = ORIENTED_EDGE ( 'NONE', *, *, #8, .T. ) ;
#56 = APPROVAL_STATUS ( 'not_yet_approved' ) ;
#57 = AXIS2_PLACEMENT_3D ( 'NONE', #242, #80, #198 ) ;
#58 = DESIGN_CONTEXT ( 'detailed design', #115, 'design' ) ;
#59 = CARTESIAN_POINT ( 'NONE',  ( 0.000000000000000000, 0.000000000000000000, 500.0000000000000000 ) ) ;
#60 = PERSON_AND_ORGANIZATION ( #68, #73 ) ;
#61 = VERTEX_POINT ( 'NONE', #24 ) ;
#62 = FACE_BOUND ( 'NONE', #171, .T. ) ;
#63 = EDGE_CURVE ( 'NONE', #214, #164, #167, .T. ) ;
#64 = DIRECTION ( 'NONE',  ( 1.000000000000000000, 0.000000000000000000, 0.000000000000000000 ) ) ;
#65 = ORIENTED_EDGE ( 'NONE', *, *, #90, .T. ) ;
#66 = DIRECTION ( 'NONE',  ( 1.000000000000000000, 0.000000000000000000, 0.000000000000000000 ) ) ;
#67 = CC_DESIGN_PERSON_AND_ORGANIZATION_ASSIGNMENT ( #155, #20, ( #248 ) ) ;
#68 = PERSON ( 'NEURÈENÝ', 'NEURÈENÝ', 'NEURÈENÝ', ('NEURÈENÝ'), ('NEURÈENÝ'), ('NEURÈENÝ') ) ;
#69 = ORIENTED_EDGE ( 'NONE', *, *, #95, .F. ) ;
#70 = ORIENTED_EDGE ( 'NONE', *, *, #63, .T. ) ;
#71 = COORDINATED_UNIVERSAL_TIME_OFFSET ( 1, 0, .AHEAD. ) ;
#72 = EDGE_LOOP ( 'NONE', ( #217, #182, #93, #69 ) ) ;
#73 = ORGANIZATION ( 'NEURÈENÝ', 'NEURÈENÝ', '' ) ;
#74 = APPROVAL_DATE_TIME ( #2, #7 ) ;
#75 = EDGE_CURVE ( 'NONE', #234, #232, #175, .T. ) ;
#76 = CARTESIAN_POINT ( 'NONE',  ( 7.000000000000000000, 8.572527594031473190E-16, 5.000000000000000000 ) ) ;
#77 = FACE_OUTER_BOUND ( 'NONE', #241, .T. ) ;
#78 = COORDINATED_UNIVERSAL_TIME_OFFSET ( 1, 0, .AHEAD. ) ;
#79 = DIRECTION ( 'NONE',  ( 0.000000000000000000, 0.000000000000000000, 1.000000000000000000 ) ) ;
#80 = DIRECTION ( 'NONE',  ( -0.000000000000000000, -0.000000000000000000, -1.000000000000000000 ) ) ;
#81 = LINE ( 'NONE', #139, #39 ) ;
#82 = CARTESIAN_POINT ( 'NONE',  ( -7.000000000000000000, 0.000000000000000000, 5.000000000000000000 ) ) ;
#83 = ORIENTED_EDGE ( 'NONE', *, *, #138, .F. ) ;
#84 = LOCAL_TIME ( 12, 19, 6.000000000000000000, #92 ) ;
#85 = VERTEX_POINT ( 'NONE', #161 ) ;
#86 = CC_DESIGN_DATE_AND_TIME_ASSIGNMENT ( #240, #98, ( #129 ) ) ;
#87 = APPROVAL ( #224, 'NEURÈENÝ' ) ;
#88 = CLOSED_SHELL ( 'NONE', ( #189, #227, #247, #185, #203, #110, #45 ) ) ;
#89 = CARTESIAN_POINT ( 'NONE',  ( 0.000000000000000000, 0.000000000000000000, 5.000000000000000000 ) ) ;
#90 = EDGE_CURVE ( 'NONE', #44, #164, #81, .T. ) ;
#91 = CARTESIAN_POINT ( 'NONE',  ( 4.000000000000000000, 4.898587196589412829E-16, 500.0000000000000000 ) ) ;
#92 = COORDINATED_UNIVERSAL_TIME_OFFSET ( 1, 0, .AHEAD. ) ;
#93 = ORIENTED_EDGE ( 'NONE', *, *, #75, .T. ) ;
#94 = DIRECTION ( 'NONE',  ( 1.000000000000000000, 0.000000000000000000, 0.000000000000000000 ) ) ;
#95 = EDGE_CURVE ( 'NONE', #99, #232, #1, .T. ) ;
#96 = CC_DESIGN_DATE_AND_TIME_ASSIGNMENT ( #177, #6, ( #170 ) ) ;
#97 = DIRECTION ( 'NONE',  ( -1.000000000000000000, 0.000000000000000000, 0.000000000000000000 ) ) ;
#98 = DATE_TIME_ROLE ( 'creation_date' ) ;
#99 = VERTEX_POINT ( 'NONE', #143 ) ;
#100 = CARTESIAN_POINT ( 'NONE',  ( -4.000000000000000000, 0.000000000000000000, 5.000000000000000000 ) ) ;
#101 = SECURITY_CLASSIFICATION_LEVEL ( 'unclassified' ) ;
#102 = CARTESIAN_POINT ( 'NONE',  ( 0.000000000000000000, 0.000000000000000000, 5.000000000000000000 ) ) ;
#103 =( NAMED_UNIT ( * ) SI_UNIT ( $, .STERADIAN. ) SOLID_ANGLE_UNIT ( ) );
#104 = CYLINDRICAL_SURFACE ( 'NONE', #57, 4.000000000000000000 ) ;
#105 = ORIENTED_EDGE ( 'NONE', *, *, #230, .T. ) ;
#106 = MECHANICAL_CONTEXT ( 'NONE', #159, 'mechanical' ) ;
#107 = ORIENTED_EDGE ( 'NONE', *, *, #95, .T. ) ;
#108 = APPROVAL_DATE_TIME ( #149, #87 ) ;
#109 = DIRECTION ( 'NONE',  ( 0.000000000000000000, 0.000000000000000000, 1.000000000000000000 ) ) ;
#110 = ADVANCED_FACE ( 'NONE', ( #124 ), #104, .T. ) ;
#111 = DIRECTION ( 'NONE',  ( 0.000000000000000000, 0.000000000000000000, 1.000000000000000000 ) ) ;
#112 = FACE_OUTER_BOUND ( 'NONE', #72, .T. ) ;
#113 = LOCAL_TIME ( 12, 19, 6.000000000000000000, #158 ) ;
#114 = AXIS2_PLACEMENT_3D ( 'NONE', #132, #216, #235 ) ;
#115 = APPLICATION_CONTEXT ( 'configuration controlled 3d designs of mechanical parts and assemblies' ) ;
#116 = APPROVAL_ROLE ( '' ) ;
#117 = CIRCLE ( 'NONE', #22, 4.000000000000000000 ) ;
#118 = APPROVAL ( #196, 'NEURÈENÝ' ) ;
#119 = DIRECTION ( 'NONE',  ( 1.000000000000000000, 0.000000000000000000, 0.000000000000000000 ) ) ;
#120 = PERSON_AND_ORGANIZATION ( #68, #73 ) ;
#121 = ORIENTED_EDGE ( 'NONE', *, *, #75, .F. ) ;
#122 = CIRCLE ( 'NONE', #11, 4.000000000000000000 ) ;
#123 = DIRECTION ( 'NONE',  ( 1.000000000000000000, 0.000000000000000000, 0.000000000000000000 ) ) ;
#124 = FACE_OUTER_BOUND ( 'NONE', #207, .T. ) ;
#125 = EDGE_CURVE ( 'NONE', #61, #99, #141, .T. ) ;
#126 = FACE_OUTER_BOUND ( 'NONE', #131, .T. ) ;
#127 = CARTESIAN_POINT ( 'NONE',  ( 0.000000000000000000, 0.000000000000000000, 0.000000000000000000 ) ) ;
#128 = CARTESIAN_POINT ( 'NONE',  ( -7.000000000000000000, 0.000000000000000000, 0.000000000000000000 ) ) ;
#129 = PRODUCT_DEFINITION ( 'NEZNÁMÝ', '', #248, #58 ) ;
#130 = VECTOR ( 'NONE', #157, 1000.000000000000000 ) ;
#131 = EDGE_LOOP ( 'NONE', ( #249, #105, #70, #160 ) ) ;
#132 = CARTESIAN_POINT ( 'NONE',  ( 0.000000000000000000, 0.000000000000000000, 5.000000000000000000 ) ) ;
#133 =( NAMED_UNIT ( * ) PLANE_ANGLE_UNIT ( ) SI_UNIT ( $, .RADIAN. ) );
#134 = CALENDAR_DATE ( 2023, 12, 2 ) ;
#135 = DIRECTION ( 'NONE',  ( 0.000000000000000000, 0.000000000000000000, 1.000000000000000000 ) ) ;
#136 = PERSON_AND_ORGANIZATION_ROLE ( 'design_owner' ) ;
#137 = PLANE ( 'NONE',  #53 ) ;
#138 = EDGE_CURVE ( 'NONE', #232, #234, #252, .T. ) ;
#139 = CARTESIAN_POINT ( 'NONE',  ( -4.000000000000000000, 0.000000000000000000, 500.0000000000000000 ) ) ;
#140 = EDGE_LOOP ( 'NONE', ( #83, #121 ) ) ;
#141 = CIRCLE ( 'NONE', #213, 7.000000000000000000 ) ;
#142 = EDGE_CURVE ( 'NONE', #61, #234, #237, .T. ) ;
#143 = CARTESIAN_POINT ( 'NONE',  ( -7.000000000000000000, 0.000000000000000000, 5.000000000000000000 ) ) ;
#144 = AXIS2_PLACEMENT_3D ( 'NONE', #127, #109, #184 ) ;
#145 = DIRECTION ( 'NONE',  ( -0.000000000000000000, -0.000000000000000000, -1.000000000000000000 ) ) ;
#146 = FACE_OUTER_BOUND ( 'NONE', #30, .T. ) ;
#147 = CARTESIAN_POINT ( 'NONE',  ( 0.000000000000000000, 0.000000000000000000, 5.000000000000000000 ) ) ;
#148 = AXIS2_PLACEMENT_3D ( 'NONE', #147, #111, #49 ) ;
#149 = DATE_AND_TIME ( #37, #84 ) ;
#150 = VECTOR ( 'NONE', #245, 1000.000000000000000 ) ;
#151 =( GEOMETRIC_REPRESENTATION_CONTEXT ( 3 ) GLOBAL_UNCERTAINTY_ASSIGNED_CONTEXT ( ( #226 ) ) GLOBAL_UNIT_ASSIGNED_CONTEXT ( ( #236, #133, #103 ) ) REPRESENTATION_CONTEXT ( 'NONE', 'WORKASPACE' ) );
#152 = EDGE_CURVE ( 'NONE', #85, #44, #117, .T. ) ;
#153 = ORIENTED_EDGE ( 'NONE', *, *, #63, .F. ) ;
#154 = CARTESIAN_POINT ( 'NONE',  ( 0.000000000000000000, 0.000000000000000000, 0.000000000000000000 ) ) ;
#155 = PERSON_AND_ORGANIZATION ( #68, #73 ) ;
#156 = CYLINDRICAL_SURFACE ( 'NONE', #114, 7.000000000000000000 ) ;
#157 = DIRECTION ( 'NONE',  ( -0.000000000000000000, -0.000000000000000000, -1.000000000000000000 ) ) ;
#158 = COORDINATED_UNIVERSAL_TIME_OFFSET ( 1, 0, .AHEAD. ) ;
#159 = APPLICATION_CONTEXT ( 'configuration controlled 3d designs of mechanical parts and assemblies' ) ;
#160 = ORIENTED_EDGE ( 'NONE', *, *, #90, .F. ) ;
#161 = CARTESIAN_POINT ( 'NONE',  ( 4.000000000000000000, 4.898587196589412829E-16, 500.0000000000000000 ) ) ;
#162 = CARTESIAN_POINT ( 'NONE',  ( 0.000000000000000000, 0.000000000000000000, 0.000000000000000000 ) ) ;
#163 = CARTESIAN_POINT ( 'NONE',  ( 0.000000000000000000, 0.000000000000000000, 0.000000000000000000 ) ) ;
#164 = VERTEX_POINT ( 'NONE', #100 ) ;
#165 = CC_DESIGN_APPROVAL ( #118, ( #129 ) ) ;
#166 = DIRECTION ( 'NONE',  ( 0.000000000000000000, 0.000000000000000000, 1.000000000000000000 ) ) ;
#167 = CIRCLE ( 'NONE', #228, 4.000000000000000000 ) ;
#168 = SHAPE_DEFINITION_REPRESENTATION ( #33, #38 ) ;
#169 = AXIS2_PLACEMENT_3D ( 'NONE', #10, #206, #183 ) ;
#170 = SECURITY_CLASSIFICATION ( '', '', #101 ) ;
#171 = EDGE_LOOP ( 'NONE', ( #47, #153 ) ) ;
#172 = CALENDAR_DATE ( 2023, 12, 2 ) ;
#173 = CARTESIAN_POINT ( 'NONE',  ( 0.000000000000000000, 0.000000000000000000, 5.000000000000000000 ) ) ;
#174 = CARTESIAN_POINT ( 'NONE',  ( 0.000000000000000000, 0.000000000000000000, 5.000000000000000000 ) ) ;
#175 = CIRCLE ( 'NONE', #254, 7.000000000000000000 ) ;
#176 = ORIENTED_EDGE ( 'NONE', *, *, #178, .T. ) ;
#177 = DATE_AND_TIME ( #172, #239 ) ;
#178 = EDGE_CURVE ( 'NONE', #164, #214, #208, .T. ) ;
#179 = LOCAL_TIME ( 12, 19, 6.000000000000000000, #78 ) ;
#180 = DIRECTION ( 'NONE',  ( 0.000000000000000000, 0.000000000000000000, 1.000000000000000000 ) ) ;
#181 = ORIENTED_EDGE ( 'NONE', *, *, #152, .T. ) ;
#182 = ORIENTED_EDGE ( 'NONE', *, *, #142, .T. ) ;
#183 = DIRECTION ( 'NONE',  ( -1.000000000000000000, 0.000000000000000000, 0.000000000000000000 ) ) ;
#184 = DIRECTION ( 'NONE',  ( 1.000000000000000000, 0.000000000000000000, -0.000000000000000000 ) ) ;
#185 = ADVANCED_FACE ( 'NONE', ( #62, #77 ), #137, .T. ) ;
#186 = VECTOR ( 'NONE', #13, 1000.000000000000000 ) ;
#187 = PLANE ( 'NONE',  #144 ) ;
#188 = APPROVAL_ROLE ( '' ) ;
#189 = ADVANCED_FACE ( 'NONE', ( #126 ), #211, .T. ) ;
#190 = PRODUCT ( '1f5a', '1f5a', '', ( #106 ) ) ;
#191 = DIRECTION ( 'NONE',  ( 0.000000000000000000, 0.000000000000000000, 1.000000000000000000 ) ) ;
#192 = PERSON_AND_ORGANIZATION_ROLE ( 'creator' ) ;
#193 = CC_DESIGN_PERSON_AND_ORGANIZATION_ASSIGNMENT ( #60, #136, ( #190 ) ) ;
#194 = CALENDAR_DATE ( 2023, 12, 2 ) ;
#195 = AXIS2_PLACEMENT_3D ( 'NONE', #162, #246, #204 ) ;
#196 = APPROVAL_STATUS ( 'not_yet_approved' ) ;
#197 = EDGE_CURVE ( 'NONE', #99, #61, #225, .T. ) ;
#198 = DIRECTION ( 'NONE',  ( -1.000000000000000000, 0.000000000000000000, 0.000000000000000000 ) ) ;
#199 = DATE_AND_TIME ( #194, #229 ) ;
#200 = CARTESIAN_POINT ( 'NONE',  ( 0.000000000000000000, 0.000000000000000000, 500.0000000000000000 ) ) ;
#201 = DIRECTION ( 'NONE',  ( 1.000000000000000000, 0.000000000000000000, 0.000000000000000000 ) ) ;
#202 = PLANE ( 'NONE',  #46 ) ;
#203 = ADVANCED_FACE ( 'NONE', ( #28 ), #187, .F. ) ;
#204 = DIRECTION ( 'NONE',  ( 1.000000000000000000, 0.000000000000000000, 0.000000000000000000 ) ) ;
#205 = CC_DESIGN_PERSON_AND_ORGANIZATION_ASSIGNMENT ( #17, #192, ( #248 ) ) ;
#206 = DIRECTION ( 'NONE',  ( -0.000000000000000000, -0.000000000000000000, -1.000000000000000000 ) ) ;
#207 = EDGE_LOOP ( 'NONE', ( #5, #218, #65, #176 ) ) ;
#208 = CIRCLE ( 'NONE', #253, 4.000000000000000000 ) ;
#209 = DIRECTION ( 'NONE',  ( 1.000000000000000000, 0.000000000000000000, -0.000000000000000000 ) ) ;
#210 = CC_DESIGN_APPROVAL ( #7, ( #248 ) ) ;
#211 = CYLINDRICAL_SURFACE ( 'NONE', #169, 4.000000000000000000 ) ;
#212 = DIRECTION ( 'NONE',  ( 1.000000000000000000, 0.000000000000000000, 0.000000000000000000 ) ) ;
#213 = AXIS2_PLACEMENT_3D ( 'NONE', #173, #9, #201 ) ;
#214 = VERTEX_POINT ( 'NONE', #35 ) ;
#215 = PERSON_AND_ORGANIZATION_ROLE ( 'creator' ) ;
#216 = DIRECTION ( 'NONE',  ( -0.000000000000000000, -0.000000000000000000, -1.000000000000000000 ) ) ;
#217 = ORIENTED_EDGE ( 'NONE', *, *, #125, .F. ) ;
#218 = ORIENTED_EDGE ( 'NONE', *, *, #8, .F. ) ;
#219 = CARTESIAN_POINT ( 'NONE',  ( 0.000000000000000000, 0.000000000000000000, 5.000000000000000000 ) ) ;
#220 = DIRECTION ( 'NONE',  ( 1.000000000000000000, 0.000000000000000000, -0.000000000000000000 ) ) ;
#221 = DIRECTION ( 'NONE',  ( 0.000000000000000000, 0.000000000000000000, 1.000000000000000000 ) ) ;
#222 = EDGE_LOOP ( 'NONE', ( #14, #244, #107, #52 ) ) ;
#223 = APPROVAL_PERSON_ORGANIZATION ( #40, #7, #23 ) ;
#224 = APPROVAL_STATUS ( 'not_yet_approved' ) ;
#225 = CIRCLE ( 'NONE', #148, 7.000000000000000000 ) ;
#226 = UNCERTAINTY_MEASURE_WITH_UNIT (LENGTH_MEASURE( 1.000000000000000082E-05 ), #236, 'distance_accuracy_value', 'NONE');
#227 = ADVANCED_FACE ( 'NONE', ( #112 ), #12, .T. ) ;
#228 = AXIS2_PLACEMENT_3D ( 'NONE', #102, #180, #212 ) ;
#229 = LOCAL_TIME ( 12, 19, 6.000000000000000000, #71 ) ;
#230 = EDGE_CURVE ( 'NONE', #85, #214, #42, .T. ) ;
#231 = ORIENTED_EDGE ( 'NONE', *, *, #197, .T. ) ;
#232 = VERTEX_POINT ( 'NONE', #128 ) ;
#233 = PERSON_AND_ORGANIZATION ( #68, #73 ) ;
#234 = VERTEX_POINT ( 'NONE', #18 ) ;
#235 = DIRECTION ( 'NONE',  ( -1.000000000000000000, 0.000000000000000000, 0.000000000000000000 ) ) ;
#236 =( LENGTH_UNIT ( ) NAMED_UNIT ( * ) SI_UNIT ( .MILLI., .METRE. ) );
#237 = LINE ( 'NONE', #76, #130 ) ;
#238 = DIRECTION ( 'NONE',  ( 0.000000000000000000, 0.000000000000000000, 1.000000000000000000 ) ) ;
#239 = LOCAL_TIME ( 12, 19, 6.000000000000000000, #19 ) ;
#240 = DATE_AND_TIME ( #21, #179 ) ;
#241 = EDGE_LOOP ( 'NONE', ( #231, #50 ) ) ;
#242 = CARTESIAN_POINT ( 'NONE',  ( 0.000000000000000000, 0.000000000000000000, 500.0000000000000000 ) ) ;
#243 = PERSON_AND_ORGANIZATION ( #68, #73 ) ;
#244 = ORIENTED_EDGE ( 'NONE', *, *, #197, .F. ) ;
#245 = DIRECTION ( 'NONE',  ( -0.000000000000000000, -0.000000000000000000, -1.000000000000000000 ) ) ;
#246 = DIRECTION ( 'NONE',  ( 0.000000000000000000, 0.000000000000000000, 1.000000000000000000 ) ) ;
#247 = ADVANCED_FACE ( 'NONE', ( #255 ), #156, .T. ) ;
#248 = PRODUCT_DEFINITION_FORMATION_WITH_SPECIFIED_SOURCE ( 'LIBOVOLNÝ', '', #190, .NOT_KNOWN. ) ;
#249 = ORIENTED_EDGE ( 'NONE', *, *, #152, .F. ) ;
#250 = CARTESIAN_POINT ( 'NONE',  ( -4.000000000000000000, 0.000000000000000000, 500.0000000000000000 ) ) ;
#251 = PERSON_AND_ORGANIZATION ( #68, #73 ) ;
#252 = CIRCLE ( 'NONE', #51, 7.000000000000000000 ) ;
#253 = AXIS2_PLACEMENT_3D ( 'NONE', #174, #3, #64 ) ;
#254 = AXIS2_PLACEMENT_3D ( 'NONE', #154, #191, #94 ) ;
#255 = FACE_OUTER_BOUND ( 'NONE', #222, .T. ) ;
ENDSEC;
END-ISO-10303-21;
