ISO-10303-21;
HEADER;
FILE_DESCRIPTION (( 'STEP AP203' ),
    '1' );
FILE_NAME ('367a.STEP',
    '2023-02-12T11:43:14',
    ( '' ),
    ( '' ),
    'SwSTEP 2.0',
    'SolidWorks 2019',
    '' );
FILE_SCHEMA (( 'CONFIG_CONTROL_DESIGN' ));
ENDSEC;

DATA;
#1 = APPROVAL ( #235, 'NEURÈENÝ' ) ;
#2 = CYLINDRICAL_SURFACE ( 'NONE', #163, 2.600000000000000089 ) ;
#3 = DIRECTION ( 'NONE',  ( -0.000000000000000000, -0.000000000000000000, -1.000000000000000000 ) ) ;
#4 = DIRECTION ( 'NONE',  ( -1.000000000000000000, 0.000000000000000000, 0.000000000000000000 ) ) ;
#5 = COORDINATED_UNIVERSAL_TIME_OFFSET ( 1, 0, .AHEAD. ) ;
#6 = DATE_TIME_ROLE ( 'classification_date' ) ;
#7 = CARTESIAN_POINT ( 'NONE',  ( 0.000000000000000000, 0.000000000000000000, 3.000000000000000000 ) ) ;
#8 = ORIENTED_EDGE ( 'NONE', *, *, #211, .F. ) ;
#9 = ORIENTED_EDGE ( 'NONE', *, *, #25, .T. ) ;
#10 = ORIENTED_EDGE ( 'NONE', *, *, #131, .F. ) ;
#11 = ADVANCED_FACE ( 'NONE', ( #205, #147 ), #227, .T. ) ;
#12 = ORIENTED_EDGE ( 'NONE', *, *, #112, .F. ) ;
#13 = DIRECTION ( 'NONE',  ( 0.000000000000000000, 0.000000000000000000, 1.000000000000000000 ) ) ;
#14 = CIRCLE ( 'NONE', #39, 5.000000000000000000 ) ;
#15 = DIRECTION ( 'NONE',  ( 0.000000000000000000, 0.000000000000000000, 1.000000000000000000 ) ) ;
#16 = FACE_OUTER_BOUND ( 'NONE', #169, .T. ) ;
#17 = CARTESIAN_POINT ( 'NONE',  ( 0.000000000000000000, 0.000000000000000000, 400.0000000000000000 ) ) ;
#18 =( NAMED_UNIT ( * ) SI_UNIT ( $, .STERADIAN. ) SOLID_ANGLE_UNIT ( ) );
#19 = CARTESIAN_POINT ( 'NONE',  ( 0.000000000000000000, 0.000000000000000000, 3.000000000000000000 ) ) ;
#20 = PERSON_AND_ORGANIZATION ( #176, #247 ) ;
#21 = APPROVAL_DATE_TIME ( #115, #186 ) ;
#22 = PRODUCT ( '367a', '367a', '', ( #38 ) ) ;
#23 = PERSON_AND_ORGANIZATION_ROLE ( 'design_supplier' ) ;
#24 = EDGE_LOOP ( 'NONE', ( #81, #85, #42, #124 ) ) ;
#25 = EDGE_CURVE ( 'NONE', #105, #224, #181, .T. ) ;
#26 = CARTESIAN_POINT ( 'NONE',  ( -5.000000000000000000, 0.000000000000000000, 3.000000000000000000 ) ) ;
#27 = ORIENTED_EDGE ( 'NONE', *, *, #168, .T. ) ;
#28 = AXIS2_PLACEMENT_3D ( 'NONE', #46, #127, #29 ) ;
#29 = DIRECTION ( 'NONE',  ( 1.000000000000000000, 0.000000000000000000, 0.000000000000000000 ) ) ;
#30 = DIRECTION ( 'NONE',  ( -0.000000000000000000, -0.000000000000000000, -1.000000000000000000 ) ) ;
#31 = CC_DESIGN_PERSON_AND_ORGANIZATION_ASSIGNMENT ( #114, #98, ( #89 ) ) ;
#32 = DIRECTION ( 'NONE',  ( 1.000000000000000000, 0.000000000000000000, 0.000000000000000000 ) ) ;
#33 = LOCAL_TIME ( 12, 43, 14.00000000000000000, #103 ) ;
#34 = DIRECTION ( 'NONE',  ( -1.000000000000000000, 0.000000000000000000, 0.000000000000000000 ) ) ;
#35 = CARTESIAN_POINT ( 'NONE',  ( 0.000000000000000000, 0.000000000000000000, 3.000000000000000000 ) ) ;
#36 =( NAMED_UNIT ( * ) PLANE_ANGLE_UNIT ( ) SI_UNIT ( $, .RADIAN. ) );
#37 = AXIS2_PLACEMENT_3D ( 'NONE', #192, #193, #161 ) ;
#38 = MECHANICAL_CONTEXT ( 'NONE', #145, 'mechanical' ) ;
#39 = AXIS2_PLACEMENT_3D ( 'NONE', #134, #212, #175 ) ;
#40 = VERTEX_POINT ( 'NONE', #26 ) ;
#41 = ORIENTED_EDGE ( 'NONE', *, *, #229, .F. ) ;
#42 = ORIENTED_EDGE ( 'NONE', *, *, #229, .T. ) ;
#43 = PRODUCT_DEFINITION_SHAPE ( 'NONE', 'NONE',  #155 ) ;
#44 = ORIENTED_EDGE ( 'NONE', *, *, #66, .T. ) ;
#45 = CARTESIAN_POINT ( 'NONE',  ( 0.000000000000000000, 0.000000000000000000, 3.000000000000000000 ) ) ;
#46 = CARTESIAN_POINT ( 'NONE',  ( 0.000000000000000000, 0.000000000000000000, 0.000000000000000000 ) ) ;
#47 = CARTESIAN_POINT ( 'NONE',  ( 0.000000000000000000, 0.000000000000000000, 400.0000000000000000 ) ) ;
#48 = ADVANCED_FACE ( 'NONE', ( #165 ), #52, .F. ) ;
#49 = CARTESIAN_POINT ( 'NONE',  ( -2.600000000000000089, 0.000000000000000000, 400.0000000000000000 ) ) ;
#50 = DIRECTION ( 'NONE',  ( -0.000000000000000000, -0.000000000000000000, -1.000000000000000000 ) ) ;
#51 = LOCAL_TIME ( 12, 43, 14.00000000000000000, #77 ) ;
#52 = PLANE ( 'NONE',  #130 ) ;
#53 = DESIGN_CONTEXT ( 'detailed design', #100, 'design' ) ;
#54 = PERSON_AND_ORGANIZATION ( #176, #247 ) ;
#55 = CIRCLE ( 'NONE', #197, 5.000000000000000000 ) ;
#56 = EDGE_CURVE ( 'NONE', #167, #82, #123, .T. ) ;
#57 = CALENDAR_DATE ( 2023, 12, 2 ) ;
#58 =( GEOMETRIC_REPRESENTATION_CONTEXT ( 3 ) GLOBAL_UNCERTAINTY_ASSIGNED_CONTEXT ( ( #76 ) ) GLOBAL_UNIT_ASSIGNED_CONTEXT ( ( #220, #36, #18 ) ) REPRESENTATION_CONTEXT ( 'NONE', 'WORKASPACE' ) );
#59 = ADVANCED_FACE ( 'NONE', ( #94 ), #113, .T. ) ;
#60 = ORIENTED_EDGE ( 'NONE', *, *, #83, .T. ) ;
#61 = ORIENTED_EDGE ( 'NONE', *, *, #83, .F. ) ;
#62 = ORIENTED_EDGE ( 'NONE', *, *, #56, .F. ) ;
#63 = VECTOR ( 'NONE', #170, 1000.000000000000000 ) ;
#64 = MANIFOLD_SOLID_BREP ( 'Pøidat vysunutím3', #206 ) ;
#65 = EDGE_LOOP ( 'NONE', ( #225, #226, #9, #61 ) ) ;
#66 = EDGE_CURVE ( 'NONE', #104, #40, #14, .T. ) ;
#67 = ORIENTED_EDGE ( 'NONE', *, *, #168, .F. ) ;
#68 = LINE ( 'NONE', #110, #63 ) ;
#69 = AXIS2_PLACEMENT_3D ( 'NONE', #45, #122, #201 ) ;
#70 = DIRECTION ( 'NONE',  ( 0.000000000000000000, 0.000000000000000000, 1.000000000000000000 ) ) ;
#71 = DIRECTION ( 'NONE',  ( -1.000000000000000000, 0.000000000000000000, 0.000000000000000000 ) ) ;
#72 = DIRECTION ( 'NONE',  ( 1.000000000000000000, 0.000000000000000000, -0.000000000000000000 ) ) ;
#73 = DIRECTION ( 'NONE',  ( 0.000000000000000000, 0.000000000000000000, 1.000000000000000000 ) ) ;
#74 = PERSON_AND_ORGANIZATION_ROLE ( 'creator' ) ;
#75 = VECTOR ( 'NONE', #231, 1000.000000000000000 ) ;
#76 = UNCERTAINTY_MEASURE_WITH_UNIT (LENGTH_MEASURE( 1.000000000000000082E-05 ), #220, 'distance_accuracy_value', 'NONE');
#77 = COORDINATED_UNIVERSAL_TIME_OFFSET ( 1, 0, .AHEAD. ) ;
#78 = PERSON_AND_ORGANIZATION ( #176, #247 ) ;
#79 = EDGE_CURVE ( 'NONE', #223, #102, #251, .T. ) ;
#80 = DIRECTION ( 'NONE',  ( 1.000000000000000000, 0.000000000000000000, -0.000000000000000000 ) ) ;
#81 = ORIENTED_EDGE ( 'NONE', *, *, #66, .F. ) ;
#82 = VERTEX_POINT ( 'NONE', #171 ) ;
#83 = EDGE_CURVE ( 'NONE', #167, #224, #209, .T. ) ;
#84 = SHAPE_DEFINITION_REPRESENTATION ( #43, #179 ) ;
#85 = ORIENTED_EDGE ( 'NONE', *, *, #112, .T. ) ;
#86 = DIRECTION ( 'NONE',  ( -1.000000000000000000, 0.000000000000000000, 0.000000000000000000 ) ) ;
#87 = APPROVAL ( #166, 'NEURÈENÝ' ) ;
#88 = CARTESIAN_POINT ( 'NONE',  ( 0.000000000000000000, 0.000000000000000000, 3.000000000000000000 ) ) ;
#89 = SECURITY_CLASSIFICATION ( '', '', #216 ) ;
#90 = DIRECTION ( 'NONE',  ( -0.000000000000000000, -0.000000000000000000, -1.000000000000000000 ) ) ;
#91 = CC_DESIGN_APPROVAL ( #186, ( #155 ) ) ;
#92 = PLANE ( 'NONE',  #221 ) ;
#93 = CC_DESIGN_DATE_AND_TIME_ASSIGNMENT ( #178, #6, ( #89 ) ) ;
#94 = FACE_OUTER_BOUND ( 'NONE', #125, .T. ) ;
#95 = AXIS2_PLACEMENT_3D ( 'NONE', #254, #73, #32 ) ;
#96 = CYLINDRICAL_SURFACE ( 'NONE', #139, 5.000000000000000000 ) ;
#97 = PRODUCT_DEFINITION_FORMATION_WITH_SPECIFIED_SOURCE ( 'LIBOVOLNÝ', '', #22, .NOT_KNOWN. ) ;
#98 = PERSON_AND_ORGANIZATION_ROLE ( 'classification_officer' ) ;
#99 = DATE_AND_TIME ( #218, #237 ) ;
#100 = APPLICATION_CONTEXT ( 'configuration controlled 3d designs of mechanical parts and assemblies' ) ;
#101 = APPROVAL_PERSON_ORGANIZATION ( #78, #87, #120 ) ;
#102 = VERTEX_POINT ( 'NONE', #230 ) ;
#103 = COORDINATED_UNIVERSAL_TIME_OFFSET ( 1, 0, .AHEAD. ) ;
#104 = VERTEX_POINT ( 'NONE', #187 ) ;
#105 = VERTEX_POINT ( 'NONE', #232 ) ;
#106 = CC_DESIGN_DATE_AND_TIME_ASSIGNMENT ( #156, #239, ( #155 ) ) ;
#107 = LINE ( 'NONE', #151, #137 ) ;
#108 = CARTESIAN_POINT ( 'NONE',  ( -5.000000000000000000, 0.000000000000000000, 3.000000000000000000 ) ) ;
#109 = AXIS2_PLACEMENT_3D ( 'NONE', #252, #15, #213 ) ;
#110 = CARTESIAN_POINT ( 'NONE',  ( 2.600000000000000089, 3.184081677783118191E-16, 400.0000000000000000 ) ) ;
#111 = LINE ( 'NONE', #108, #75 ) ;
#112 = EDGE_CURVE ( 'NONE', #104, #102, #107, .T. ) ;
#113 = CYLINDRICAL_SURFACE ( 'NONE', #200, 5.000000000000000000 ) ;
#114 = PERSON_AND_ORGANIZATION ( #176, #247 ) ;
#115 = DATE_AND_TIME ( #57, #207 ) ;
#116 = PERSON_AND_ORGANIZATION ( #176, #247 ) ;
#117 = EDGE_CURVE ( 'NONE', #82, #167, #188, .T. ) ;
#118 = CC_DESIGN_APPROVAL ( #87, ( #89 ) ) ;
#119 = PERSON_AND_ORGANIZATION ( #176, #247 ) ;
#120 = APPROVAL_ROLE ( '' ) ;
#121 = EDGE_LOOP ( 'NONE', ( #182, #41 ) ) ;
#122 = DIRECTION ( 'NONE',  ( 0.000000000000000000, 0.000000000000000000, 1.000000000000000000 ) ) ;
#123 = CIRCLE ( 'NONE', #126, 2.600000000000000089 ) ;
#124 = ORIENTED_EDGE ( 'NONE', *, *, #160, .F. ) ;
#125 = EDGE_LOOP ( 'NONE', ( #12, #67, #146, #183 ) ) ;
#126 = AXIS2_PLACEMENT_3D ( 'NONE', #234, #70, #210 ) ;
#127 = DIRECTION ( 'NONE',  ( 0.000000000000000000, 0.000000000000000000, 1.000000000000000000 ) ) ;
#128 = DIRECTION ( 'NONE',  ( 0.000000000000000000, 0.000000000000000000, 1.000000000000000000 ) ) ;
#129 = CARTESIAN_POINT ( 'NONE',  ( 0.000000000000000000, 0.000000000000000000, 0.000000000000000000 ) ) ;
#130 = AXIS2_PLACEMENT_3D ( 'NONE', #129, #13, #72 ) ;
#131 = EDGE_CURVE ( 'NONE', #82, #105, #68, .T. ) ;
#132 = CC_DESIGN_APPROVAL ( #1, ( #97 ) ) ;
#133 = FACE_OUTER_BOUND ( 'NONE', #65, .T. ) ;
#134 = CARTESIAN_POINT ( 'NONE',  ( 0.000000000000000000, 0.000000000000000000, 3.000000000000000000 ) ) ;
#135 = PERSON_AND_ORGANIZATION ( #176, #247 ) ;
#136 = ADVANCED_FACE ( 'NONE', ( #150 ), #2, .T. ) ;
#137 = VECTOR ( 'NONE', #30, 1000.000000000000000 ) ;
#138 = PERSON_AND_ORGANIZATION_ROLE ( 'creator' ) ;
#139 = AXIS2_PLACEMENT_3D ( 'NONE', #19, #3, #4 ) ;
#140 = APPLICATION_PROTOCOL_DEFINITION ( 'international standard', 'config_control_design', 1994, #100 ) ;
#141 = ADVANCED_FACE ( 'NONE', ( #133 ), #173, .T. ) ;
#142 = APPROVAL_DATE_TIME ( #99, #1 ) ;
#143 = FACE_OUTER_BOUND ( 'NONE', #24, .T. ) ;
#144 = CALENDAR_DATE ( 2023, 12, 2 ) ;
#145 = APPLICATION_CONTEXT ( 'configuration controlled 3d designs of mechanical parts and assemblies' ) ;
#146 = ORIENTED_EDGE ( 'NONE', *, *, #160, .T. ) ;
#147 = FACE_OUTER_BOUND ( 'NONE', #164, .T. ) ;
#148 = DIRECTION ( 'NONE',  ( 1.000000000000000000, 0.000000000000000000, 0.000000000000000000 ) ) ;
#149 = DIRECTION ( 'NONE',  ( -0.000000000000000000, -0.000000000000000000, -1.000000000000000000 ) ) ;
#150 = FACE_OUTER_BOUND ( 'NONE', #203, .T. ) ;
#151 = CARTESIAN_POINT ( 'NONE',  ( 5.000000000000000000, 6.123233995736766282E-16, 3.000000000000000000 ) ) ;
#152 = AXIS2_PLACEMENT_3D ( 'NONE', #7, #244, #80 ) ;
#153 = AXIS2_PLACEMENT_3D ( 'NONE', #154, #128, #191 ) ;
#154 = CARTESIAN_POINT ( 'NONE',  ( 0.000000000000000000, 0.000000000000000000, 3.000000000000000000 ) ) ;
#155 = PRODUCT_DEFINITION ( 'NEZNÁMÝ', '', #97, #53 ) ;
#156 = DATE_AND_TIME ( #238, #253 ) ;
#157 = VECTOR ( 'NONE', #90, 1000.000000000000000 ) ;
#158 = PERSON_AND_ORGANIZATION ( #176, #247 ) ;
#159 = APPROVAL_ROLE ( '' ) ;
#160 = EDGE_CURVE ( 'NONE', #40, #223, #111, .T. ) ;
#161 = DIRECTION ( 'NONE',  ( 1.000000000000000000, 0.000000000000000000, 0.000000000000000000 ) ) ;
#162 = ORIENTED_EDGE ( 'NONE', *, *, #25, .F. ) ;
#163 = AXIS2_PLACEMENT_3D ( 'NONE', #189, #50, #86 ) ;
#164 = EDGE_LOOP ( 'NONE', ( #27, #44 ) ) ;
#165 = FACE_OUTER_BOUND ( 'NONE', #121, .T. ) ;
#166 = APPROVAL_STATUS ( 'not_yet_approved' ) ;
#167 = VERTEX_POINT ( 'NONE', #49 ) ;
#168 = EDGE_CURVE ( 'NONE', #40, #104, #55, .T. ) ;
#169 = EDGE_LOOP ( 'NONE', ( #246, #248 ) ) ;
#170 = DIRECTION ( 'NONE',  ( -0.000000000000000000, -0.000000000000000000, -1.000000000000000000 ) ) ;
#171 = CARTESIAN_POINT ( 'NONE',  ( 2.600000000000000089, 3.184081677783118191E-16, 400.0000000000000000 ) ) ;
#172 = AXIS2_PLACEMENT_3D ( 'NONE', #17, #185, #34 ) ;
#173 = CYLINDRICAL_SURFACE ( 'NONE', #172, 2.600000000000000089 ) ;
#174 = DIRECTION ( 'NONE',  ( 0.000000000000000000, 0.000000000000000000, 1.000000000000000000 ) ) ;
#175 = DIRECTION ( 'NONE',  ( 1.000000000000000000, 0.000000000000000000, 0.000000000000000000 ) ) ;
#176 = PERSON ( 'NEURÈENÝ', 'NEURÈENÝ', 'NEURÈENÝ', ('NEURÈENÝ'), ('NEURÈENÝ'), ('NEURÈENÝ') ) ;
#177 = PERSON_AND_ORGANIZATION_ROLE ( 'design_owner' ) ;
#178 = DATE_AND_TIME ( #219, #51 ) ;
#179 = ADVANCED_BREP_SHAPE_REPRESENTATION ( '367a', ( #64, #37 ), #58 ) ;
#180 = CC_DESIGN_PERSON_AND_ORGANIZATION_ASSIGNMENT ( #116, #74, ( #155 ) ) ;
#181 = CIRCLE ( 'NONE', #69, 2.600000000000000089 ) ;
#182 = ORIENTED_EDGE ( 'NONE', *, *, #79, .F. ) ;
#183 = ORIENTED_EDGE ( 'NONE', *, *, #79, .T. ) ;
#184 = ORIENTED_EDGE ( 'NONE', *, *, #211, .T. ) ;
#185 = DIRECTION ( 'NONE',  ( -0.000000000000000000, -0.000000000000000000, -1.000000000000000000 ) ) ;
#186 = APPROVAL ( #241, 'NEURÈENÝ' ) ;
#187 = CARTESIAN_POINT ( 'NONE',  ( 5.000000000000000000, 6.123233995736766282E-16, 3.000000000000000000 ) ) ;
#188 = CIRCLE ( 'NONE', #109, 2.600000000000000089 ) ;
#189 = CARTESIAN_POINT ( 'NONE',  ( 0.000000000000000000, 0.000000000000000000, 400.0000000000000000 ) ) ;
#190 = DIRECTION ( 'NONE',  ( 0.000000000000000000, 0.000000000000000000, 1.000000000000000000 ) ) ;
#191 = DIRECTION ( 'NONE',  ( 1.000000000000000000, 0.000000000000000000, 0.000000000000000000 ) ) ;
#192 = CARTESIAN_POINT ( 'NONE',  ( 0.000000000000000000, 0.000000000000000000, 0.000000000000000000 ) ) ;
#193 = DIRECTION ( 'NONE',  ( 0.000000000000000000, 0.000000000000000000, 1.000000000000000000 ) ) ;
#194 = CC_DESIGN_PERSON_AND_ORGANIZATION_ASSIGNMENT ( #119, #23, ( #97 ) ) ;
#195 = APPLICATION_PROTOCOL_DEFINITION ( 'international standard', 'config_control_design', 1994, #145 ) ;
#196 = COORDINATED_UNIVERSAL_TIME_OFFSET ( 1, 0, .AHEAD. ) ;
#197 = AXIS2_PLACEMENT_3D ( 'NONE', #35, #190, #148 ) ;
#198 = CC_DESIGN_SECURITY_CLASSIFICATION ( #89, ( #97 ) ) ;
#199 = ADVANCED_FACE ( 'NONE', ( #16 ), #92, .T. ) ;
#200 = AXIS2_PLACEMENT_3D ( 'NONE', #88, #149, #71 ) ;
#201 = DIRECTION ( 'NONE',  ( 1.000000000000000000, 0.000000000000000000, 0.000000000000000000 ) ) ;
#202 = APPROVAL_PERSON_ORGANIZATION ( #158, #186, #159 ) ;
#203 = EDGE_LOOP ( 'NONE', ( #10, #62, #60, #184 ) ) ;
#204 = PRODUCT_RELATED_PRODUCT_CATEGORY ( 'detail', '', ( #22 ) ) ;
#205 = FACE_BOUND ( 'NONE', #243, .T. ) ;
#206 = CLOSED_SHELL ( 'NONE', ( #141, #249, #59, #11, #48, #136, #199 ) ) ;
#207 = LOCAL_TIME ( 12, 43, 14.00000000000000000, #196 ) ;
#208 = CARTESIAN_POINT ( 'NONE',  ( -2.600000000000000089, 0.000000000000000000, 400.0000000000000000 ) ) ;
#209 = LINE ( 'NONE', #208, #157 ) ;
#210 = DIRECTION ( 'NONE',  ( 1.000000000000000000, 0.000000000000000000, 0.000000000000000000 ) ) ;
#211 = EDGE_CURVE ( 'NONE', #224, #105, #233, .T. ) ;
#212 = DIRECTION ( 'NONE',  ( 0.000000000000000000, 0.000000000000000000, 1.000000000000000000 ) ) ;
#213 = DIRECTION ( 'NONE',  ( 1.000000000000000000, 0.000000000000000000, 0.000000000000000000 ) ) ;
#214 = COORDINATED_UNIVERSAL_TIME_OFFSET ( 1, 0, .AHEAD. ) ;
#215 = CIRCLE ( 'NONE', #28, 5.000000000000000000 ) ;
#216 = SECURITY_CLASSIFICATION_LEVEL ( 'unclassified' ) ;
#217 = CC_DESIGN_PERSON_AND_ORGANIZATION_ASSIGNMENT ( #135, #177, ( #22 ) ) ;
#218 = CALENDAR_DATE ( 2023, 12, 2 ) ;
#219 = CALENDAR_DATE ( 2023, 12, 2 ) ;
#220 =( LENGTH_UNIT ( ) NAMED_UNIT ( * ) SI_UNIT ( .MILLI., .METRE. ) );
#221 = AXIS2_PLACEMENT_3D ( 'NONE', #47, #174, #255 ) ;
#222 = DATE_AND_TIME ( #144, #33 ) ;
#223 = VERTEX_POINT ( 'NONE', #250 ) ;
#224 = VERTEX_POINT ( 'NONE', #228 ) ;
#225 = ORIENTED_EDGE ( 'NONE', *, *, #117, .F. ) ;
#226 = ORIENTED_EDGE ( 'NONE', *, *, #131, .T. ) ;
#227 = PLANE ( 'NONE',  #152 ) ;
#228 = CARTESIAN_POINT ( 'NONE',  ( -2.600000000000000089, 0.000000000000000000, 3.000000000000000000 ) ) ;
#229 = EDGE_CURVE ( 'NONE', #102, #223, #215, .T. ) ;
#230 = CARTESIAN_POINT ( 'NONE',  ( 5.000000000000000000, 6.123233995736766282E-16, 0.000000000000000000 ) ) ;
#231 = DIRECTION ( 'NONE',  ( -0.000000000000000000, -0.000000000000000000, -1.000000000000000000 ) ) ;
#232 = CARTESIAN_POINT ( 'NONE',  ( 2.600000000000000089, 3.184081677783118191E-16, 3.000000000000000000 ) ) ;
#233 = CIRCLE ( 'NONE', #153, 2.600000000000000089 ) ;
#234 = CARTESIAN_POINT ( 'NONE',  ( 0.000000000000000000, 0.000000000000000000, 400.0000000000000000 ) ) ;
#235 = APPROVAL_STATUS ( 'not_yet_approved' ) ;
#236 = APPROVAL_ROLE ( '' ) ;
#237 = LOCAL_TIME ( 12, 43, 14.00000000000000000, #214 ) ;
#238 = CALENDAR_DATE ( 2023, 12, 2 ) ;
#239 = DATE_TIME_ROLE ( 'creation_date' ) ;
#240 = CC_DESIGN_PERSON_AND_ORGANIZATION_ASSIGNMENT ( #54, #138, ( #97 ) ) ;
#241 = APPROVAL_STATUS ( 'not_yet_approved' ) ;
#242 = APPROVAL_PERSON_ORGANIZATION ( #20, #1, #236 ) ;
#243 = EDGE_LOOP ( 'NONE', ( #8, #162 ) ) ;
#244 = DIRECTION ( 'NONE',  ( 0.000000000000000000, 0.000000000000000000, 1.000000000000000000 ) ) ;
#245 = APPROVAL_DATE_TIME ( #222, #87 ) ;
#246 = ORIENTED_EDGE ( 'NONE', *, *, #56, .T. ) ;
#247 = ORGANIZATION ( 'NEURÈENÝ', 'NEURÈENÝ', '' ) ;
#248 = ORIENTED_EDGE ( 'NONE', *, *, #117, .T. ) ;
#249 = ADVANCED_FACE ( 'NONE', ( #143 ), #96, .T. ) ;
#250 = CARTESIAN_POINT ( 'NONE',  ( -5.000000000000000000, 0.000000000000000000, 0.000000000000000000 ) ) ;
#251 = CIRCLE ( 'NONE', #95, 5.000000000000000000 ) ;
#252 = CARTESIAN_POINT ( 'NONE',  ( 0.000000000000000000, 0.000000000000000000, 400.0000000000000000 ) ) ;
#253 = LOCAL_TIME ( 12, 43, 14.00000000000000000, #5 ) ;
#254 = CARTESIAN_POINT ( 'NONE',  ( 0.000000000000000000, 0.000000000000000000, 0.000000000000000000 ) ) ;
#255 = DIRECTION ( 'NONE',  ( 1.000000000000000000, 0.000000000000000000, -0.000000000000000000 ) ) ;
ENDSEC;
END-ISO-10303-21;
