ISO-10303-21;
HEADER;
FILE_DESCRIPTION (( 'STEP AP203' ),
    '1' );
FILE_NAME ('ebbd.STEP',
    '2023-02-12T12:21:32',
    ( '' ),
    ( '' ),
    'SwSTEP 2.0',
    'SolidWorks 2019',
    '' );
FILE_SCHEMA (( 'CONFIG_CONTROL_DESIGN' ));
ENDSEC;

DATA;
#1 = CARTESIAN_POINT ( 'NONE',  ( 2.000000000000000000, 2.449293598294706414E-16, 0.000000000000000000 ) ) ;
#2 = DIRECTION ( 'NONE',  ( 0.000000000000000000, 0.000000000000000000, 1.000000000000000000 ) ) ;
#3 = CARTESIAN_POINT ( 'NONE',  ( 1.100000000000000089, 1.347111479062088503E-16, 315.0000000000000000 ) ) ;
#4 = DIRECTION ( 'NONE',  ( 0.000000000000000000, 0.000000000000000000, 1.000000000000000000 ) ) ;
#5 = LINE ( 'NONE', #41, #9 ) ;
#6 = AXIS2_PLACEMENT_3D ( 'NONE', #94, #253, #77 ) ;
#7 = APPROVAL_ROLE ( '' ) ;
#8 = CC_DESIGN_APPROVAL ( #161, ( #90 ) ) ;
#9 = VECTOR ( 'NONE', #162, 1000.000000000000000 ) ;
#10 = CC_DESIGN_PERSON_AND_ORGANIZATION_ASSIGNMENT ( #159, #59, ( #90 ) ) ;
#11 = EDGE_CURVE ( 'NONE', #247, #252, #19, .T. ) ;
#12 = ORIENTED_EDGE ( 'NONE', *, *, #129, .F. ) ;
#13 = ORIENTED_EDGE ( 'NONE', *, *, #224, .T. ) ;
#14 = LOCAL_TIME ( 13, 21, 32.00000000000000000, #24 ) ;
#15 = EDGE_LOOP ( 'NONE', ( #130, #225, #213, #49 ) ) ;
#16 = LINE ( 'NONE', #209, #196 ) ;
#17 = APPROVAL_PERSON_ORGANIZATION ( #102, #161, #141 ) ;
#18 = ORIENTED_EDGE ( 'NONE', *, *, #22, .T. ) ;
#19 = LINE ( 'NONE', #115, #167 ) ;
#20 = AXIS2_PLACEMENT_3D ( 'NONE', #142, #2, #128 ) ;
#21 = DIRECTION ( 'NONE',  ( -0.000000000000000000, -0.000000000000000000, -1.000000000000000000 ) ) ;
#22 = EDGE_CURVE ( 'NONE', #252, #57, #184, .T. ) ;
#23 =( NAMED_UNIT ( * ) PLANE_ANGLE_UNIT ( ) SI_UNIT ( $, .RADIAN. ) );
#24 = COORDINATED_UNIVERSAL_TIME_OFFSET ( 1, 0, .AHEAD. ) ;
#25 = ORGANIZATION ( 'NEURÈENÝ', 'NEURÈENÝ', '' ) ;
#26 = CC_DESIGN_PERSON_AND_ORGANIZATION_ASSIGNMENT ( #160, #200, ( #234 ) ) ;
#27 = CARTESIAN_POINT ( 'NONE',  ( 0.000000000000000000, 0.000000000000000000, 2.000000000000000000 ) ) ;
#28 = DESIGN_CONTEXT ( 'detailed design', #242, 'design' ) ;
#29 = PRODUCT_RELATED_PRODUCT_CATEGORY ( 'detail', '', ( #234 ) ) ;
#30 = PLANE ( 'NONE',  #20 ) ;
#31 = ORIENTED_EDGE ( 'NONE', *, *, #125, .T. ) ;
#32 = ORIENTED_EDGE ( 'NONE', *, *, #222, .F. ) ;
#33 = DIRECTION ( 'NONE',  ( -1.000000000000000000, 0.000000000000000000, 0.000000000000000000 ) ) ;
#34 = CARTESIAN_POINT ( 'NONE',  ( 0.000000000000000000, 0.000000000000000000, 2.000000000000000000 ) ) ;
#35 = APPROVAL_DATE_TIME ( #116, #124 ) ;
#36 = ORIENTED_EDGE ( 'NONE', *, *, #129, .T. ) ;
#37 = ORIENTED_EDGE ( 'NONE', *, *, #11, .T. ) ;
#38 = DIRECTION ( 'NONE',  ( 1.000000000000000000, 0.000000000000000000, 0.000000000000000000 ) ) ;
#39 = AXIS2_PLACEMENT_3D ( 'NONE', #219, #4, #83 ) ;
#40 = ADVANCED_FACE ( 'NONE', ( #217 ), #138, .T. ) ;
#41 = CARTESIAN_POINT ( 'NONE',  ( -1.100000000000000089, 0.000000000000000000, 315.0000000000000000 ) ) ;
#42 =( GEOMETRIC_REPRESENTATION_CONTEXT ( 3 ) GLOBAL_UNCERTAINTY_ASSIGNED_CONTEXT ( ( #78 ) ) GLOBAL_UNIT_ASSIGNED_CONTEXT ( ( #119, #23, #241 ) ) REPRESENTATION_CONTEXT ( 'NONE', 'WORKASPACE' ) );
#43 = DATE_TIME_ROLE ( 'creation_date' ) ;
#44 = CC_DESIGN_PERSON_AND_ORGANIZATION_ASSIGNMENT ( #84, #144, ( #238 ) ) ;
#45 = CIRCLE ( 'NONE', #123, 1.100000000000000089 ) ;
#46 = AXIS2_PLACEMENT_3D ( 'NONE', #180, #165, #243 ) ;
#47 = CC_DESIGN_PERSON_AND_ORGANIZATION_ASSIGNMENT ( #133, #175, ( #135 ) ) ;
#48 = CARTESIAN_POINT ( 'NONE',  ( 0.000000000000000000, 0.000000000000000000, 2.000000000000000000 ) ) ;
#49 = ORIENTED_EDGE ( 'NONE', *, *, #53, .F. ) ;
#50 = EDGE_LOOP ( 'NONE', ( #210, #37, #18, #91 ) ) ;
#51 = VERTEX_POINT ( 'NONE', #192 ) ;
#52 = AXIS2_PLACEMENT_3D ( 'NONE', #232, #21, #136 ) ;
#53 = EDGE_CURVE ( 'NONE', #93, #112, #172, .T. ) ;
#54 = CARTESIAN_POINT ( 'NONE',  ( 0.000000000000000000, 0.000000000000000000, 315.0000000000000000 ) ) ;
#55 = CC_DESIGN_PERSON_AND_ORGANIZATION_ASSIGNMENT ( #82, #231, ( #90 ) ) ;
#56 = APPROVAL_ROLE ( '' ) ;
#57 = VERTEX_POINT ( 'NONE', #60 ) ;
#58 = DIRECTION ( 'NONE',  ( -0.000000000000000000, -0.000000000000000000, -1.000000000000000000 ) ) ;
#59 = PERSON_AND_ORGANIZATION_ROLE ( 'design_supplier' ) ;
#60 = CARTESIAN_POINT ( 'NONE',  ( -1.100000000000000089, 0.000000000000000000, 2.000000000000000000 ) ) ;
#61 = EDGE_CURVE ( 'NONE', #151, #226, #16, .T. ) ;
#62 = AXIS2_PLACEMENT_3D ( 'NONE', #34, #92, #96 ) ;
#63 = CALENDAR_DATE ( 2023, 12, 2 ) ;
#64 = APPROVAL_DATE_TIME ( #255, #161 ) ;
#65 = CC_DESIGN_DATE_AND_TIME_ASSIGNMENT ( #66, #43, ( #238 ) ) ;
#66 = DATE_AND_TIME ( #197, #199 ) ;
#67 = AXIS2_PLACEMENT_3D ( 'NONE', #229, #233, #132 ) ;
#68 = CARTESIAN_POINT ( 'NONE',  ( 2.000000000000000000, 2.449293598294706414E-16, 2.000000000000000000 ) ) ;
#69 = ADVANCED_FACE ( 'NONE', ( #134 ), #211, .T. ) ;
#70 = DIRECTION ( 'NONE',  ( 0.000000000000000000, 0.000000000000000000, 1.000000000000000000 ) ) ;
#71 = AXIS2_PLACEMENT_3D ( 'NONE', #54, #173, #38 ) ;
#72 = EDGE_LOOP ( 'NONE', ( #76, #89, #13, #31 ) ) ;
#73 = ORIENTED_EDGE ( 'NONE', *, *, #87, .T. ) ;
#74 = DATE_AND_TIME ( #212, #14 ) ;
#75 = COORDINATED_UNIVERSAL_TIME_OFFSET ( 1, 0, .AHEAD. ) ;
#76 = ORIENTED_EDGE ( 'NONE', *, *, #11, .F. ) ;
#77 = DIRECTION ( 'NONE',  ( 1.000000000000000000, 0.000000000000000000, 0.000000000000000000 ) ) ;
#78 = UNCERTAINTY_MEASURE_WITH_UNIT (LENGTH_MEASURE( 1.000000000000000082E-05 ), #119, 'distance_accuracy_value', 'NONE');
#79 = LOCAL_TIME ( 13, 21, 32.00000000000000000, #101 ) ;
#80 = ADVANCED_BREP_SHAPE_REPRESENTATION ( 'ebbd', ( #108, #39 ), #42 ) ;
#81 = DIRECTION ( 'NONE',  ( -0.000000000000000000, -0.000000000000000000, -1.000000000000000000 ) ) ;
#82 = PERSON_AND_ORGANIZATION ( #194, #25 ) ;
#83 = DIRECTION ( 'NONE',  ( 1.000000000000000000, 0.000000000000000000, 0.000000000000000000 ) ) ;
#84 = PERSON_AND_ORGANIZATION ( #194, #25 ) ;
#85 = DIRECTION ( 'NONE',  ( -1.000000000000000000, 0.000000000000000000, 0.000000000000000000 ) ) ;
#86 = CARTESIAN_POINT ( 'NONE',  ( 0.000000000000000000, 0.000000000000000000, 2.000000000000000000 ) ) ;
#87 = EDGE_CURVE ( 'NONE', #51, #247, #45, .T. ) ;
#88 = CLOSED_SHELL ( 'NONE', ( #40, #201, #182, #137, #189, #69, #111 ) ) ;
#89 = ORIENTED_EDGE ( 'NONE', *, *, #87, .F. ) ;
#90 = PRODUCT_DEFINITION_FORMATION_WITH_SPECIFIED_SOURCE ( 'LIBOVOLNÝ', '', #234, .NOT_KNOWN. ) ;
#91 = ORIENTED_EDGE ( 'NONE', *, *, #224, .F. ) ;
#92 = DIRECTION ( 'NONE',  ( 0.000000000000000000, 0.000000000000000000, 1.000000000000000000 ) ) ;
#93 = VERTEX_POINT ( 'NONE', #98 ) ;
#94 = CARTESIAN_POINT ( 'NONE',  ( 0.000000000000000000, 0.000000000000000000, 2.000000000000000000 ) ) ;
#95 = CIRCLE ( 'NONE', #191, 2.000000000000000000 ) ;
#96 = DIRECTION ( 'NONE',  ( 1.000000000000000000, 0.000000000000000000, 0.000000000000000000 ) ) ;
#97 = COORDINATED_UNIVERSAL_TIME_OFFSET ( 1, 0, .AHEAD. ) ;
#98 = CARTESIAN_POINT ( 'NONE',  ( -2.000000000000000000, 0.000000000000000000, 2.000000000000000000 ) ) ;
#99 = CARTESIAN_POINT ( 'NONE',  ( -2.000000000000000000, 0.000000000000000000, 2.000000000000000000 ) ) ;
#100 = CC_DESIGN_DATE_AND_TIME_ASSIGNMENT ( #74, #153, ( #135 ) ) ;
#101 = COORDINATED_UNIVERSAL_TIME_OFFSET ( 1, 0, .AHEAD. ) ;
#102 = PERSON_AND_ORGANIZATION ( #194, #25 ) ;
#103 = EDGE_CURVE ( 'NONE', #247, #51, #118, .T. ) ;
#104 = APPLICATION_PROTOCOL_DEFINITION ( 'international standard', 'config_control_design', 1994, #242 ) ;
#105 = CIRCLE ( 'NONE', #205, 2.000000000000000000 ) ;
#106 = DIRECTION ( 'NONE',  ( 1.000000000000000000, 0.000000000000000000, -0.000000000000000000 ) ) ;
#107 = DIRECTION ( 'NONE',  ( 1.000000000000000000, 0.000000000000000000, 0.000000000000000000 ) ) ;
#108 = MANIFOLD_SOLID_BREP ( 'Pøidat vysunutím3', #88 ) ;
#109 = APPROVAL_PERSON_ORGANIZATION ( #139, #208, #7 ) ;
#110 = DIRECTION ( 'NONE',  ( 0.000000000000000000, 0.000000000000000000, 1.000000000000000000 ) ) ;
#111 = ADVANCED_FACE ( 'NONE', ( #155 ), #152, .T. ) ;
#112 = VERTEX_POINT ( 'NONE', #188 ) ;
#113 = SHAPE_DEFINITION_REPRESENTATION ( #195, #80 ) ;
#114 = ORIENTED_EDGE ( 'NONE', *, *, #149, .T. ) ;
#115 = CARTESIAN_POINT ( 'NONE',  ( 1.100000000000000089, 1.347111479062088503E-16, 315.0000000000000000 ) ) ;
#116 = DATE_AND_TIME ( #171, #246 ) ;
#117 = CARTESIAN_POINT ( 'NONE',  ( 1.100000000000000089, 1.347111479062088503E-16, 2.000000000000000000 ) ) ;
#118 = CIRCLE ( 'NONE', #71, 1.100000000000000089 ) ;
#119 =( LENGTH_UNIT ( ) NAMED_UNIT ( * ) SI_UNIT ( .MILLI., .METRE. ) );
#120 = DATE_AND_TIME ( #239, #79 ) ;
#121 = CYLINDRICAL_SURFACE ( 'NONE', #163, 2.000000000000000000 ) ;
#122 = CC_DESIGN_SECURITY_CLASSIFICATION ( #135, ( #90 ) ) ;
#123 = AXIS2_PLACEMENT_3D ( 'NONE', #193, #131, #249 ) ;
#124 = APPROVAL ( #237, 'NEURÈENÝ' ) ;
#125 = EDGE_CURVE ( 'NONE', #57, #252, #216, .T. ) ;
#126 = EDGE_LOOP ( 'NONE', ( #168, #114 ) ) ;
#127 = FACE_OUTER_BOUND ( 'NONE', #214, .T. ) ;
#128 = DIRECTION ( 'NONE',  ( 1.000000000000000000, 0.000000000000000000, -0.000000000000000000 ) ) ;
#129 = EDGE_CURVE ( 'NONE', #112, #226, #251, .T. ) ;
#130 = ORIENTED_EDGE ( 'NONE', *, *, #149, .F. ) ;
#131 = DIRECTION ( 'NONE',  ( 0.000000000000000000, 0.000000000000000000, 1.000000000000000000 ) ) ;
#132 = DIRECTION ( 'NONE',  ( 1.000000000000000000, 0.000000000000000000, -0.000000000000000000 ) ) ;
#133 = PERSON_AND_ORGANIZATION ( #194, #25 ) ;
#134 = FACE_OUTER_BOUND ( 'NONE', #72, .T. ) ;
#135 = SECURITY_CLASSIFICATION ( '', '', #235 ) ;
#136 = DIRECTION ( 'NONE',  ( -1.000000000000000000, 0.000000000000000000, 0.000000000000000000 ) ) ;
#137 = ADVANCED_FACE ( 'NONE', ( #183, #166 ), #203, .T. ) ;
#138 = CYLINDRICAL_SURFACE ( 'NONE', #52, 1.100000000000000089 ) ;
#139 = PERSON_AND_ORGANIZATION ( #194, #25 ) ;
#140 = CC_DESIGN_APPROVAL ( #208, ( #238 ) ) ;
#141 = APPROVAL_ROLE ( '' ) ;
#142 = CARTESIAN_POINT ( 'NONE',  ( 0.000000000000000000, 0.000000000000000000, 0.000000000000000000 ) ) ;
#143 = CIRCLE ( 'NONE', #46, 2.000000000000000000 ) ;
#144 = PERSON_AND_ORGANIZATION_ROLE ( 'creator' ) ;
#145 = DIRECTION ( 'NONE',  ( 1.000000000000000000, 0.000000000000000000, 0.000000000000000000 ) ) ;
#146 = DIRECTION ( 'NONE',  ( -0.000000000000000000, -0.000000000000000000, -1.000000000000000000 ) ) ;
#147 = APPROVAL_PERSON_ORGANIZATION ( #190, #124, #56 ) ;
#148 = ORIENTED_EDGE ( 'NONE', *, *, #103, .T. ) ;
#149 = EDGE_CURVE ( 'NONE', #151, #93, #143, .T. ) ;
#150 = FACE_OUTER_BOUND ( 'NONE', #15, .T. ) ;
#151 = VERTEX_POINT ( 'NONE', #68 ) ;
#152 = PLANE ( 'NONE',  #67 ) ;
#153 = DATE_TIME_ROLE ( 'classification_date' ) ;
#154 = ORIENTED_EDGE ( 'NONE', *, *, #22, .F. ) ;
#155 = FACE_OUTER_BOUND ( 'NONE', #169, .T. ) ;
#156 = EDGE_CURVE ( 'NONE', #93, #151, #105, .T. ) ;
#157 = AXIS2_PLACEMENT_3D ( 'NONE', #215, #227, #33 ) ;
#158 = DIRECTION ( 'NONE',  ( 0.000000000000000000, 0.000000000000000000, 1.000000000000000000 ) ) ;
#159 = PERSON_AND_ORGANIZATION ( #194, #25 ) ;
#160 = PERSON_AND_ORGANIZATION ( #194, #25 ) ;
#161 = APPROVAL ( #218, 'NEURÈENÝ' ) ;
#162 = DIRECTION ( 'NONE',  ( -0.000000000000000000, -0.000000000000000000, -1.000000000000000000 ) ) ;
#163 = AXIS2_PLACEMENT_3D ( 'NONE', #177, #81, #85 ) ;
#164 = CARTESIAN_POINT ( 'NONE',  ( 0.000000000000000000, 0.000000000000000000, 0.000000000000000000 ) ) ;
#165 = DIRECTION ( 'NONE',  ( 0.000000000000000000, 0.000000000000000000, 1.000000000000000000 ) ) ;
#166 = FACE_OUTER_BOUND ( 'NONE', #126, .T. ) ;
#167 = VECTOR ( 'NONE', #187, 1000.000000000000000 ) ;
#168 = ORIENTED_EDGE ( 'NONE', *, *, #156, .T. ) ;
#169 = EDGE_LOOP ( 'NONE', ( #73, #148 ) ) ;
#170 = CARTESIAN_POINT ( 'NONE',  ( 0.000000000000000000, 0.000000000000000000, 0.000000000000000000 ) ) ;
#171 = CALENDAR_DATE ( 2023, 12, 2 ) ;
#172 = LINE ( 'NONE', #99, #202 ) ;
#173 = DIRECTION ( 'NONE',  ( 0.000000000000000000, 0.000000000000000000, 1.000000000000000000 ) ) ;
#174 = DIRECTION ( 'NONE',  ( 1.000000000000000000, 0.000000000000000000, 0.000000000000000000 ) ) ;
#175 = PERSON_AND_ORGANIZATION_ROLE ( 'classification_officer' ) ;
#176 = MECHANICAL_CONTEXT ( 'NONE', #254, 'mechanical' ) ;
#177 = CARTESIAN_POINT ( 'NONE',  ( 0.000000000000000000, 0.000000000000000000, 2.000000000000000000 ) ) ;
#178 = FACE_OUTER_BOUND ( 'NONE', #244, .T. ) ;
#179 = APPROVAL_STATUS ( 'not_yet_approved' ) ;
#180 = CARTESIAN_POINT ( 'NONE',  ( 0.000000000000000000, 0.000000000000000000, 2.000000000000000000 ) ) ;
#181 = CYLINDRICAL_SURFACE ( 'NONE', #240, 2.000000000000000000 ) ;
#182 = ADVANCED_FACE ( 'NONE', ( #178 ), #181, .T. ) ;
#183 = FACE_BOUND ( 'NONE', #186, .T. ) ;
#184 = CIRCLE ( 'NONE', #6, 1.100000000000000089 ) ;
#185 = ORIENTED_EDGE ( 'NONE', *, *, #53, .T. ) ;
#186 = EDGE_LOOP ( 'NONE', ( #248, #154 ) ) ;
#187 = DIRECTION ( 'NONE',  ( -0.000000000000000000, -0.000000000000000000, -1.000000000000000000 ) ) ;
#188 = CARTESIAN_POINT ( 'NONE',  ( -2.000000000000000000, 0.000000000000000000, 0.000000000000000000 ) ) ;
#189 = ADVANCED_FACE ( 'NONE', ( #127 ), #30, .F. ) ;
#190 = PERSON_AND_ORGANIZATION ( #194, #25 ) ;
#191 = AXIS2_PLACEMENT_3D ( 'NONE', #164, #158, #174 ) ;
#192 = CARTESIAN_POINT ( 'NONE',  ( -1.100000000000000089, 0.000000000000000000, 315.0000000000000000 ) ) ;
#193 = CARTESIAN_POINT ( 'NONE',  ( 0.000000000000000000, 0.000000000000000000, 315.0000000000000000 ) ) ;
#194 = PERSON ( 'NEURÈENÝ', 'NEURÈENÝ', 'NEURÈENÝ', ('NEURÈENÝ'), ('NEURÈENÝ'), ('NEURÈENÝ') ) ;
#195 = PRODUCT_DEFINITION_SHAPE ( 'NONE', 'NONE',  #238 ) ;
#196 = VECTOR ( 'NONE', #250, 1000.000000000000000 ) ;
#197 = CALENDAR_DATE ( 2023, 12, 2 ) ;
#198 = DIRECTION ( 'NONE',  ( 0.000000000000000000, 0.000000000000000000, 1.000000000000000000 ) ) ;
#199 = LOCAL_TIME ( 13, 21, 32.00000000000000000, #236 ) ;
#200 = PERSON_AND_ORGANIZATION_ROLE ( 'design_owner' ) ;
#201 = ADVANCED_FACE ( 'NONE', ( #150 ), #121, .T. ) ;
#202 = VECTOR ( 'NONE', #58, 1000.000000000000000 ) ;
#203 = PLANE ( 'NONE',  #230 ) ;
#204 = LOCAL_TIME ( 13, 21, 32.00000000000000000, #75 ) ;
#205 = AXIS2_PLACEMENT_3D ( 'NONE', #48, #198, #145 ) ;
#206 = CC_DESIGN_APPROVAL ( #124, ( #135 ) ) ;
#207 = ORIENTED_EDGE ( 'NONE', *, *, #61, .F. ) ;
#208 = APPROVAL ( #179, 'NEURÈENÝ' ) ;
#209 = CARTESIAN_POINT ( 'NONE',  ( 2.000000000000000000, 2.449293598294706414E-16, 2.000000000000000000 ) ) ;
#210 = ORIENTED_EDGE ( 'NONE', *, *, #103, .F. ) ;
#211 = CYLINDRICAL_SURFACE ( 'NONE', #157, 1.100000000000000089 ) ;
#212 = CALENDAR_DATE ( 2023, 12, 2 ) ;
#213 = ORIENTED_EDGE ( 'NONE', *, *, #222, .T. ) ;
#214 = EDGE_LOOP ( 'NONE', ( #12, #32 ) ) ;
#215 = CARTESIAN_POINT ( 'NONE',  ( 0.000000000000000000, 0.000000000000000000, 315.0000000000000000 ) ) ;
#216 = CIRCLE ( 'NONE', #62, 1.100000000000000089 ) ;
#217 = FACE_OUTER_BOUND ( 'NONE', #50, .T. ) ;
#218 = APPROVAL_STATUS ( 'not_yet_approved' ) ;
#219 = CARTESIAN_POINT ( 'NONE',  ( 0.000000000000000000, 0.000000000000000000, 0.000000000000000000 ) ) ;
#220 = APPROVAL_DATE_TIME ( #120, #208 ) ;
#221 = APPLICATION_PROTOCOL_DEFINITION ( 'international standard', 'config_control_design', 1994, #254 ) ;
#222 = EDGE_CURVE ( 'NONE', #226, #112, #95, .T. ) ;
#223 = AXIS2_PLACEMENT_3D ( 'NONE', #170, #110, #107 ) ;
#224 = EDGE_CURVE ( 'NONE', #51, #57, #5, .T. ) ;
#225 = ORIENTED_EDGE ( 'NONE', *, *, #61, .T. ) ;
#226 = VERTEX_POINT ( 'NONE', #1 ) ;
#227 = DIRECTION ( 'NONE',  ( -0.000000000000000000, -0.000000000000000000, -1.000000000000000000 ) ) ;
#228 = ORIENTED_EDGE ( 'NONE', *, *, #156, .F. ) ;
#229 = CARTESIAN_POINT ( 'NONE',  ( 0.000000000000000000, 0.000000000000000000, 315.0000000000000000 ) ) ;
#230 = AXIS2_PLACEMENT_3D ( 'NONE', #27, #70, #106 ) ;
#231 = PERSON_AND_ORGANIZATION_ROLE ( 'creator' ) ;
#232 = CARTESIAN_POINT ( 'NONE',  ( 0.000000000000000000, 0.000000000000000000, 315.0000000000000000 ) ) ;
#233 = DIRECTION ( 'NONE',  ( 0.000000000000000000, 0.000000000000000000, 1.000000000000000000 ) ) ;
#234 = PRODUCT ( 'ebbd', 'ebbd', '', ( #176 ) ) ;
#235 = SECURITY_CLASSIFICATION_LEVEL ( 'unclassified' ) ;
#236 = COORDINATED_UNIVERSAL_TIME_OFFSET ( 1, 0, .AHEAD. ) ;
#237 = APPROVAL_STATUS ( 'not_yet_approved' ) ;
#238 = PRODUCT_DEFINITION ( 'NEZNÁMÝ', '', #90, #28 ) ;
#239 = CALENDAR_DATE ( 2023, 12, 2 ) ;
#240 = AXIS2_PLACEMENT_3D ( 'NONE', #86, #146, #245 ) ;
#241 =( NAMED_UNIT ( * ) SI_UNIT ( $, .STERADIAN. ) SOLID_ANGLE_UNIT ( ) );
#242 = APPLICATION_CONTEXT ( 'configuration controlled 3d designs of mechanical parts and assemblies' ) ;
#243 = DIRECTION ( 'NONE',  ( 1.000000000000000000, 0.000000000000000000, 0.000000000000000000 ) ) ;
#244 = EDGE_LOOP ( 'NONE', ( #207, #228, #185, #36 ) ) ;
#245 = DIRECTION ( 'NONE',  ( -1.000000000000000000, 0.000000000000000000, 0.000000000000000000 ) ) ;
#246 = LOCAL_TIME ( 13, 21, 32.00000000000000000, #97 ) ;
#247 = VERTEX_POINT ( 'NONE', #3 ) ;
#248 = ORIENTED_EDGE ( 'NONE', *, *, #125, .F. ) ;
#249 = DIRECTION ( 'NONE',  ( 1.000000000000000000, 0.000000000000000000, 0.000000000000000000 ) ) ;
#250 = DIRECTION ( 'NONE',  ( -0.000000000000000000, -0.000000000000000000, -1.000000000000000000 ) ) ;
#251 = CIRCLE ( 'NONE', #223, 2.000000000000000000 ) ;
#252 = VERTEX_POINT ( 'NONE', #117 ) ;
#253 = DIRECTION ( 'NONE',  ( 0.000000000000000000, 0.000000000000000000, 1.000000000000000000 ) ) ;
#254 = APPLICATION_CONTEXT ( 'configuration controlled 3d designs of mechanical parts and assemblies' ) ;
#255 = DATE_AND_TIME ( #63, #204 ) ;
ENDSEC;
END-ISO-10303-21;
