ISO-10303-21;
HEADER;
FILE_DESCRIPTION (( 'STEP AP203' ),
    '1' );
FILE_NAME ('3d91.STEP',
    '2023-02-12T11:09:44',
    ( '' ),
    ( '' ),
    'SwSTEP 2.0',
    'SolidWorks 2019',
    '' );
FILE_SCHEMA (( 'CONFIG_CONTROL_DESIGN' ));
ENDSEC;

DATA;
#1 = DATE_AND_TIME ( #143, #195 ) ;
#2 = APPROVAL_DATE_TIME ( #64, #205 ) ;
#3 = ADVANCED_FACE ( 'NONE', ( #51 ), #29, .T. ) ;
#4 = ORIENTED_EDGE ( 'NONE', *, *, #83, .F. ) ;
#5 = APPROVAL_DATE_TIME ( #125, #36 ) ;
#6 = ORIENTED_EDGE ( 'NONE', *, *, #249, .F. ) ;
#7 = ORIENTED_EDGE ( 'NONE', *, *, #174, .T. ) ;
#8 = CC_DESIGN_PERSON_AND_ORGANIZATION_ASSIGNMENT ( #21, #24, ( #60 ) ) ;
#9 = PERSON ( 'NEURÈENÝ', 'NEURÈENÝ', 'NEURÈENÝ', ('NEURÈENÝ'), ('NEURÈENÝ'), ('NEURÈENÝ') ) ;
#10 = ORIENTED_EDGE ( 'NONE', *, *, #89, .F. ) ;
#11 = PERSON_AND_ORGANIZATION ( #9, #160 ) ;
#12 = VERTEX_POINT ( 'NONE', #92 ) ;
#13 = CIRCLE ( 'NONE', #48, 7.000000000000000000 ) ;
#14 =( GEOMETRIC_REPRESENTATION_CONTEXT ( 3 ) GLOBAL_UNCERTAINTY_ASSIGNED_CONTEXT ( ( #220 ) ) GLOBAL_UNIT_ASSIGNED_CONTEXT ( ( #82, #161, #180 ) ) REPRESENTATION_CONTEXT ( 'NONE', 'WORKASPACE' ) );
#15 = CARTESIAN_POINT ( 'NONE',  ( 7.000000000000000000, 8.572527594031473190E-16, 5.000000000000000000 ) ) ;
#16 = EDGE_CURVE ( 'NONE', #167, #126, #13, .T. ) ;
#17 = DIRECTION ( 'NONE',  ( -1.000000000000000000, 0.000000000000000000, 0.000000000000000000 ) ) ;
#18 = CARTESIAN_POINT ( 'NONE',  ( 0.000000000000000000, 0.000000000000000000, 5.000000000000000000 ) ) ;
#19 = CYLINDRICAL_SURFACE ( 'NONE', #178, 7.000000000000000000 ) ;
#20 = LINE ( 'NONE', #15, #57 ) ;
#21 = PERSON_AND_ORGANIZATION ( #9, #160 ) ;
#22 = AXIS2_PLACEMENT_3D ( 'NONE', #96, #134, #17 ) ;
#23 = PERSON_AND_ORGANIZATION_ROLE ( 'creator' ) ;
#24 = PERSON_AND_ORGANIZATION_ROLE ( 'classification_officer' ) ;
#25 = CARTESIAN_POINT ( 'NONE',  ( 0.000000000000000000, 0.000000000000000000, 0.000000000000000000 ) ) ;
#26 = EDGE_CURVE ( 'NONE', #110, #152, #179, .T. ) ;
#27 = ORIENTED_EDGE ( 'NONE', *, *, #26, .F. ) ;
#28 = PRODUCT_DEFINITION_SHAPE ( 'NONE', 'NONE',  #149 ) ;
#29 = CYLINDRICAL_SURFACE ( 'NONE', #140, 7.000000000000000000 ) ;
#30 = DIRECTION ( 'NONE',  ( 1.000000000000000000, 0.000000000000000000, 0.000000000000000000 ) ) ;
#31 = AXIS2_PLACEMENT_3D ( 'NONE', #210, #252, #158 ) ;
#32 = CC_DESIGN_SECURITY_CLASSIFICATION ( #60, ( #141 ) ) ;
#33 = ADVANCED_FACE ( 'NONE', ( #93 ), #243, .T. ) ;
#34 = CARTESIAN_POINT ( 'NONE',  ( 4.250000000000000000, 5.204748896376250699E-16, 500.0000000000000000 ) ) ;
#35 = DIRECTION ( 'NONE',  ( 0.000000000000000000, 0.000000000000000000, 1.000000000000000000 ) ) ;
#36 = APPROVAL ( #218, 'NEURÈENÝ' ) ;
#37 = CARTESIAN_POINT ( 'NONE',  ( -4.250000000000000000, 0.000000000000000000, 500.0000000000000000 ) ) ;
#38 = AXIS2_PLACEMENT_3D ( 'NONE', #73, #225, #54 ) ;
#39 = PRODUCT ( '3d91', '3d91', '', ( #45 ) ) ;
#40 = DIRECTION ( 'NONE',  ( -0.000000000000000000, -0.000000000000000000, -1.000000000000000000 ) ) ;
#41 = CYLINDRICAL_SURFACE ( 'NONE', #63, 4.250000000000000000 ) ;
#42 = PERSON_AND_ORGANIZATION ( #9, #160 ) ;
#43 = ADVANCED_FACE ( 'NONE', ( #130 ), #98, .T. ) ;
#44 = CIRCLE ( 'NONE', #31, 4.250000000000000000 ) ;
#45 = MECHANICAL_CONTEXT ( 'NONE', #109, 'mechanical' ) ;
#46 = APPROVAL_ROLE ( '' ) ;
#47 = COORDINATED_UNIVERSAL_TIME_OFFSET ( 1, 0, .AHEAD. ) ;
#48 = AXIS2_PLACEMENT_3D ( 'NONE', #168, #241, #72 ) ;
#49 = APPROVAL_ROLE ( '' ) ;
#50 = ORIENTED_EDGE ( 'NONE', *, *, #201, .T. ) ;
#51 = FACE_OUTER_BOUND ( 'NONE', #169, .T. ) ;
#52 = AXIS2_PLACEMENT_3D ( 'NONE', #56, #189, #97 ) ;
#53 = CARTESIAN_POINT ( 'NONE',  ( 0.000000000000000000, 0.000000000000000000, 500.0000000000000000 ) ) ;
#54 = DIRECTION ( 'NONE',  ( 1.000000000000000000, 0.000000000000000000, -0.000000000000000000 ) ) ;
#55 = ORIENTED_EDGE ( 'NONE', *, *, #188, .T. ) ;
#56 = CARTESIAN_POINT ( 'NONE',  ( 0.000000000000000000, 0.000000000000000000, 5.000000000000000000 ) ) ;
#57 = VECTOR ( 'NONE', #59, 1000.000000000000000 ) ;
#58 = CARTESIAN_POINT ( 'NONE',  ( 0.000000000000000000, 0.000000000000000000, 5.000000000000000000 ) ) ;
#59 = DIRECTION ( 'NONE',  ( -0.000000000000000000, -0.000000000000000000, -1.000000000000000000 ) ) ;
#60 = SECURITY_CLASSIFICATION ( '', '', #193 ) ;
#61 = FACE_BOUND ( 'NONE', #148, .T. ) ;
#62 = APPROVAL_STATUS ( 'not_yet_approved' ) ;
#63 = AXIS2_PLACEMENT_3D ( 'NONE', #186, #115, #209 ) ;
#64 = DATE_AND_TIME ( #196, #114 ) ;
#65 = APPROVAL_ROLE ( '' ) ;
#66 = CC_DESIGN_APPROVAL ( #156, ( #149 ) ) ;
#67 = AXIS2_PLACEMENT_3D ( 'NONE', #100, #35, #153 ) ;
#68 = ORIENTED_EDGE ( 'NONE', *, *, #198, .F. ) ;
#69 = SHAPE_DEFINITION_REPRESENTATION ( #28, #157 ) ;
#70 = ORIENTED_EDGE ( 'NONE', *, *, #89, .T. ) ;
#71 = CC_DESIGN_PERSON_AND_ORGANIZATION_ASSIGNMENT ( #197, #23, ( #141 ) ) ;
#72 = DIRECTION ( 'NONE',  ( 1.000000000000000000, 0.000000000000000000, 0.000000000000000000 ) ) ;
#73 = CARTESIAN_POINT ( 'NONE',  ( 0.000000000000000000, 0.000000000000000000, 500.0000000000000000 ) ) ;
#74 = EDGE_LOOP ( 'NONE', ( #147, #4 ) ) ;
#75 = PLANE ( 'NONE',  #194 ) ;
#76 = FACE_OUTER_BOUND ( 'NONE', #94, .T. ) ;
#77 = CARTESIAN_POINT ( 'NONE',  ( 7.000000000000000000, 8.572527594031473190E-16, 0.000000000000000000 ) ) ;
#78 = DIRECTION ( 'NONE',  ( 0.000000000000000000, 0.000000000000000000, 1.000000000000000000 ) ) ;
#79 = LINE ( 'NONE', #248, #207 ) ;
#80 = CC_DESIGN_APPROVAL ( #36, ( #60 ) ) ;
#81 = ADVANCED_FACE ( 'NONE', ( #251 ), #41, .T. ) ;
#82 =( LENGTH_UNIT ( ) NAMED_UNIT ( * ) SI_UNIT ( .MILLI., .METRE. ) );
#83 = EDGE_CURVE ( 'NONE', #126, #167, #211, .T. ) ;
#84 = PERSON_AND_ORGANIZATION_ROLE ( 'design_owner' ) ;
#85 = MANIFOLD_SOLID_BREP ( 'Pøidat vysunutím3', #106 ) ;
#86 = ORIENTED_EDGE ( 'NONE', *, *, #142, .F. ) ;
#87 = AXIS2_PLACEMENT_3D ( 'NONE', #227, #176, #138 ) ;
#88 = APPROVAL_PERSON_ORGANIZATION ( #233, #205, #65 ) ;
#89 = EDGE_CURVE ( 'NONE', #237, #126, #20, .T. ) ;
#90 = EDGE_LOOP ( 'NONE', ( #219, #202 ) ) ;
#91 = COORDINATED_UNIVERSAL_TIME_OFFSET ( 1, 0, .AHEAD. ) ;
#92 = CARTESIAN_POINT ( 'NONE',  ( -4.250000000000000000, 0.000000000000000000, 5.000000000000000000 ) ) ;
#93 = FACE_OUTER_BOUND ( 'NONE', #90, .T. ) ;
#94 = EDGE_LOOP ( 'NONE', ( #10, #68, #55, #222 ) ) ;
#95 = LOCAL_TIME ( 12, 9, 44.00000000000000000, #91 ) ;
#96 = CARTESIAN_POINT ( 'NONE',  ( 0.000000000000000000, 0.000000000000000000, 500.0000000000000000 ) ) ;
#97 = DIRECTION ( 'NONE',  ( 1.000000000000000000, 0.000000000000000000, 0.000000000000000000 ) ) ;
#98 = CYLINDRICAL_SURFACE ( 'NONE', #22, 4.250000000000000000 ) ;
#99 = CARTESIAN_POINT ( 'NONE',  ( 0.000000000000000000, 0.000000000000000000, 500.0000000000000000 ) ) ;
#100 = CARTESIAN_POINT ( 'NONE',  ( 0.000000000000000000, 0.000000000000000000, 0.000000000000000000 ) ) ;
#101 = APPLICATION_PROTOCOL_DEFINITION ( 'international standard', 'config_control_design', 1994, #135 ) ;
#102 = PERSON_AND_ORGANIZATION ( #9, #160 ) ;
#103 = COORDINATED_UNIVERSAL_TIME_OFFSET ( 1, 0, .AHEAD. ) ;
#104 = CIRCLE ( 'NONE', #146, 7.000000000000000000 ) ;
#105 = ORIENTED_EDGE ( 'NONE', *, *, #198, .T. ) ;
#106 = CLOSED_SHELL ( 'NONE', ( #43, #3, #242, #128, #133, #81, #33 ) ) ;
#107 = CIRCLE ( 'NONE', #250, 4.250000000000000000 ) ;
#108 = CARTESIAN_POINT ( 'NONE',  ( 0.000000000000000000, 0.000000000000000000, 5.000000000000000000 ) ) ;
#109 = APPLICATION_CONTEXT ( 'configuration controlled 3d designs of mechanical parts and assemblies' ) ;
#110 = VERTEX_POINT ( 'NONE', #37 ) ;
#111 = CC_DESIGN_PERSON_AND_ORGANIZATION_ASSIGNMENT ( #124, #255, ( #149 ) ) ;
#112 = LOCAL_TIME ( 12, 9, 44.00000000000000000, #177 ) ;
#113 = ORIENTED_EDGE ( 'NONE', *, *, #188, .F. ) ;
#114 = LOCAL_TIME ( 12, 9, 44.00000000000000000, #235 ) ;
#115 = DIRECTION ( 'NONE',  ( -0.000000000000000000, -0.000000000000000000, -1.000000000000000000 ) ) ;
#116 = CC_DESIGN_DATE_AND_TIME_ASSIGNMENT ( #1, #121, ( #149 ) ) ;
#117 = LINE ( 'NONE', #34, #223 ) ;
#118 = DIRECTION ( 'NONE',  ( 0.000000000000000000, 0.000000000000000000, 1.000000000000000000 ) ) ;
#119 = DIRECTION ( 'NONE',  ( 1.000000000000000000, 0.000000000000000000, 0.000000000000000000 ) ) ;
#120 = APPROVAL_STATUS ( 'not_yet_approved' ) ;
#121 = DATE_TIME_ROLE ( 'creation_date' ) ;
#122 = AXIS2_PLACEMENT_3D ( 'NONE', #25, #162, #215 ) ;
#123 = DATE_AND_TIME ( #166, #112 ) ;
#124 = PERSON_AND_ORGANIZATION ( #9, #160 ) ;
#125 = DATE_AND_TIME ( #240, #95 ) ;
#126 = VERTEX_POINT ( 'NONE', #77 ) ;
#127 = ORIENTED_EDGE ( 'NONE', *, *, #224, .F. ) ;
#128 = ADVANCED_FACE ( 'NONE', ( #61, #232 ), #75, .T. ) ;
#129 = DIRECTION ( 'NONE',  ( 0.000000000000000000, 0.000000000000000000, 1.000000000000000000 ) ) ;
#130 = FACE_OUTER_BOUND ( 'NONE', #200, .T. ) ;
#131 = EDGE_LOOP ( 'NONE', ( #105, #50 ) ) ;
#132 = CARTESIAN_POINT ( 'NONE',  ( -7.000000000000000000, 0.000000000000000000, 0.000000000000000000 ) ) ;
#133 = ADVANCED_FACE ( 'NONE', ( #212 ), #136, .F. ) ;
#134 = DIRECTION ( 'NONE',  ( -0.000000000000000000, -0.000000000000000000, -1.000000000000000000 ) ) ;
#135 = APPLICATION_CONTEXT ( 'configuration controlled 3d designs of mechanical parts and assemblies' ) ;
#136 = PLANE ( 'NONE',  #87 ) ;
#137 = DIRECTION ( 'NONE',  ( -0.000000000000000000, -0.000000000000000000, -1.000000000000000000 ) ) ;
#138 = DIRECTION ( 'NONE',  ( 1.000000000000000000, 0.000000000000000000, -0.000000000000000000 ) ) ;
#139 = APPROVAL_DATE_TIME ( #123, #156 ) ;
#140 = AXIS2_PLACEMENT_3D ( 'NONE', #108, #183, #182 ) ;
#141 = PRODUCT_DEFINITION_FORMATION_WITH_SPECIFIED_SOURCE ( 'LIBOVOLNÝ', '', #39, .NOT_KNOWN. ) ;
#142 = EDGE_CURVE ( 'NONE', #204, #12, #163, .T. ) ;
#143 = CALENDAR_DATE ( 2023, 12, 2 ) ;
#144 = DATE_TIME_ROLE ( 'classification_date' ) ;
#145 = PERSON_AND_ORGANIZATION_ROLE ( 'design_supplier' ) ;
#146 = AXIS2_PLACEMENT_3D ( 'NONE', #172, #213, #119 ) ;
#147 = ORIENTED_EDGE ( 'NONE', *, *, #16, .F. ) ;
#148 = EDGE_LOOP ( 'NONE', ( #206, #86 ) ) ;
#149 = PRODUCT_DEFINITION ( 'NEZNÁMÝ', '', #141, #247 ) ;
#150 = ORIENTED_EDGE ( 'NONE', *, *, #83, .T. ) ;
#151 = ORIENTED_EDGE ( 'NONE', *, *, #201, .F. ) ;
#152 = VERTEX_POINT ( 'NONE', #155 ) ;
#153 = DIRECTION ( 'NONE',  ( 1.000000000000000000, 0.000000000000000000, 0.000000000000000000 ) ) ;
#154 = DIRECTION ( 'NONE',  ( -0.000000000000000000, -0.000000000000000000, -1.000000000000000000 ) ) ;
#155 = CARTESIAN_POINT ( 'NONE',  ( 4.250000000000000000, 5.204748896376250699E-16, 500.0000000000000000 ) ) ;
#156 = APPROVAL ( #120, 'NEURÈENÝ' ) ;
#157 = ADVANCED_BREP_SHAPE_REPRESENTATION ( '3d91', ( #85, #122 ), #14 ) ;
#158 = DIRECTION ( 'NONE',  ( 1.000000000000000000, 0.000000000000000000, 0.000000000000000000 ) ) ;
#159 = CARTESIAN_POINT ( 'NONE',  ( 7.000000000000000000, 8.572527594031473190E-16, 5.000000000000000000 ) ) ;
#160 = ORGANIZATION ( 'NEURÈENÝ', 'NEURÈENÝ', '' ) ;
#161 =( NAMED_UNIT ( * ) PLANE_ANGLE_UNIT ( ) SI_UNIT ( $, .RADIAN. ) );
#162 = DIRECTION ( 'NONE',  ( 0.000000000000000000, 0.000000000000000000, 1.000000000000000000 ) ) ;
#163 = CIRCLE ( 'NONE', #52, 4.250000000000000000 ) ;
#164 = CALENDAR_DATE ( 2023, 12, 2 ) ;
#165 = CC_DESIGN_DATE_AND_TIME_ASSIGNMENT ( #236, #144, ( #60 ) ) ;
#166 = CALENDAR_DATE ( 2023, 12, 2 ) ;
#167 = VERTEX_POINT ( 'NONE', #132 ) ;
#168 = CARTESIAN_POINT ( 'NONE',  ( 0.000000000000000000, 0.000000000000000000, 0.000000000000000000 ) ) ;
#169 = EDGE_LOOP ( 'NONE', ( #151, #70, #150, #113 ) ) ;
#170 = VERTEX_POINT ( 'NONE', #254 ) ;
#171 = CARTESIAN_POINT ( 'NONE',  ( 0.000000000000000000, 0.000000000000000000, 5.000000000000000000 ) ) ;
#172 = CARTESIAN_POINT ( 'NONE',  ( 0.000000000000000000, 0.000000000000000000, 5.000000000000000000 ) ) ;
#173 = DIRECTION ( 'NONE',  ( 1.000000000000000000, 0.000000000000000000, 0.000000000000000000 ) ) ;
#174 = EDGE_CURVE ( 'NONE', #152, #204, #117, .T. ) ;
#175 = DIRECTION ( 'NONE',  ( 0.000000000000000000, 0.000000000000000000, 1.000000000000000000 ) ) ;
#176 = DIRECTION ( 'NONE',  ( 0.000000000000000000, 0.000000000000000000, 1.000000000000000000 ) ) ;
#177 = COORDINATED_UNIVERSAL_TIME_OFFSET ( 1, 0, .AHEAD. ) ;
#178 = AXIS2_PLACEMENT_3D ( 'NONE', #18, #228, #208 ) ;
#179 = CIRCLE ( 'NONE', #214, 4.250000000000000000 ) ;
#180 =( NAMED_UNIT ( * ) SI_UNIT ( $, .STERADIAN. ) SOLID_ANGLE_UNIT ( ) );
#181 = PERSON_AND_ORGANIZATION ( #9, #160 ) ;
#182 = DIRECTION ( 'NONE',  ( -1.000000000000000000, 0.000000000000000000, 0.000000000000000000 ) ) ;
#183 = DIRECTION ( 'NONE',  ( -0.000000000000000000, -0.000000000000000000, -1.000000000000000000 ) ) ;
#184 = PRODUCT_RELATED_PRODUCT_CATEGORY ( 'detail', '', ( #39 ) ) ;
#185 = APPROVAL_PERSON_ORGANIZATION ( #181, #156, #46 ) ;
#186 = CARTESIAN_POINT ( 'NONE',  ( 0.000000000000000000, 0.000000000000000000, 500.0000000000000000 ) ) ;
#187 = CARTESIAN_POINT ( 'NONE',  ( 4.250000000000000000, 5.204748896376250699E-16, 5.000000000000000000 ) ) ;
#188 = EDGE_CURVE ( 'NONE', #170, #167, #190, .T. ) ;
#189 = DIRECTION ( 'NONE',  ( 0.000000000000000000, 0.000000000000000000, 1.000000000000000000 ) ) ;
#190 = LINE ( 'NONE', #230, #238 ) ;
#191 = CC_DESIGN_APPROVAL ( #205, ( #141 ) ) ;
#192 = DIRECTION ( 'NONE',  ( 1.000000000000000000, 0.000000000000000000, 0.000000000000000000 ) ) ;
#193 = SECURITY_CLASSIFICATION_LEVEL ( 'unclassified' ) ;
#194 = AXIS2_PLACEMENT_3D ( 'NONE', #171, #118, #246 ) ;
#195 = LOCAL_TIME ( 12, 9, 44.00000000000000000, #47 ) ;
#196 = CALENDAR_DATE ( 2023, 12, 2 ) ;
#197 = PERSON_AND_ORGANIZATION ( #9, #160 ) ;
#198 = EDGE_CURVE ( 'NONE', #170, #237, #104, .T. ) ;
#199 = LOCAL_TIME ( 12, 9, 44.00000000000000000, #103 ) ;
#200 = EDGE_LOOP ( 'NONE', ( #6, #7, #245, #127 ) ) ;
#201 = EDGE_CURVE ( 'NONE', #237, #170, #244, .T. ) ;
#202 = ORIENTED_EDGE ( 'NONE', *, *, #249, .T. ) ;
#203 = ORIENTED_EDGE ( 'NONE', *, *, #253, .T. ) ;
#204 = VERTEX_POINT ( 'NONE', #187 ) ;
#205 = APPROVAL ( #62, 'NEURÈENÝ' ) ;
#206 = ORIENTED_EDGE ( 'NONE', *, *, #253, .F. ) ;
#207 = VECTOR ( 'NONE', #137, 1000.000000000000000 ) ;
#208 = DIRECTION ( 'NONE',  ( -1.000000000000000000, 0.000000000000000000, 0.000000000000000000 ) ) ;
#209 = DIRECTION ( 'NONE',  ( -1.000000000000000000, 0.000000000000000000, 0.000000000000000000 ) ) ;
#210 = CARTESIAN_POINT ( 'NONE',  ( 0.000000000000000000, 0.000000000000000000, 5.000000000000000000 ) ) ;
#211 = CIRCLE ( 'NONE', #67, 7.000000000000000000 ) ;
#212 = FACE_OUTER_BOUND ( 'NONE', #74, .T. ) ;
#213 = DIRECTION ( 'NONE',  ( 0.000000000000000000, 0.000000000000000000, 1.000000000000000000 ) ) ;
#214 = AXIS2_PLACEMENT_3D ( 'NONE', #53, #129, #30 ) ;
#215 = DIRECTION ( 'NONE',  ( 1.000000000000000000, 0.000000000000000000, 0.000000000000000000 ) ) ;
#216 = APPLICATION_PROTOCOL_DEFINITION ( 'international standard', 'config_control_design', 1994, #109 ) ;
#217 = APPROVAL_PERSON_ORGANIZATION ( #11, #36, #49 ) ;
#218 = APPROVAL_STATUS ( 'not_yet_approved' ) ;
#219 = ORIENTED_EDGE ( 'NONE', *, *, #26, .T. ) ;
#220 = UNCERTAINTY_MEASURE_WITH_UNIT (LENGTH_MEASURE( 1.000000000000000082E-05 ), #82, 'distance_accuracy_value', 'NONE');
#221 = ORIENTED_EDGE ( 'NONE', *, *, #224, .T. ) ;
#222 = ORIENTED_EDGE ( 'NONE', *, *, #16, .T. ) ;
#223 = VECTOR ( 'NONE', #40, 1000.000000000000000 ) ;
#224 = EDGE_CURVE ( 'NONE', #110, #12, #79, .T. ) ;
#225 = DIRECTION ( 'NONE',  ( 0.000000000000000000, 0.000000000000000000, 1.000000000000000000 ) ) ;
#226 = ORIENTED_EDGE ( 'NONE', *, *, #174, .F. ) ;
#227 = CARTESIAN_POINT ( 'NONE',  ( 0.000000000000000000, 0.000000000000000000, 0.000000000000000000 ) ) ;
#228 = DIRECTION ( 'NONE',  ( -0.000000000000000000, -0.000000000000000000, -1.000000000000000000 ) ) ;
#229 = CC_DESIGN_PERSON_AND_ORGANIZATION_ASSIGNMENT ( #42, #84, ( #39 ) ) ;
#230 = CARTESIAN_POINT ( 'NONE',  ( -7.000000000000000000, 0.000000000000000000, 5.000000000000000000 ) ) ;
#231 = AXIS2_PLACEMENT_3D ( 'NONE', #58, #78, #192 ) ;
#232 = FACE_OUTER_BOUND ( 'NONE', #131, .T. ) ;
#233 = PERSON_AND_ORGANIZATION ( #9, #160 ) ;
#234 = CC_DESIGN_PERSON_AND_ORGANIZATION_ASSIGNMENT ( #102, #145, ( #141 ) ) ;
#235 = COORDINATED_UNIVERSAL_TIME_OFFSET ( 1, 0, .AHEAD. ) ;
#236 = DATE_AND_TIME ( #164, #199 ) ;
#237 = VERTEX_POINT ( 'NONE', #159 ) ;
#238 = VECTOR ( 'NONE', #154, 1000.000000000000000 ) ;
#239 = EDGE_LOOP ( 'NONE', ( #226, #27, #221, #203 ) ) ;
#240 = CALENDAR_DATE ( 2023, 12, 2 ) ;
#241 = DIRECTION ( 'NONE',  ( 0.000000000000000000, 0.000000000000000000, 1.000000000000000000 ) ) ;
#242 = ADVANCED_FACE ( 'NONE', ( #76 ), #19, .T. ) ;
#243 = PLANE ( 'NONE',  #38 ) ;
#244 = CIRCLE ( 'NONE', #231, 7.000000000000000000 ) ;
#245 = ORIENTED_EDGE ( 'NONE', *, *, #142, .T. ) ;
#246 = DIRECTION ( 'NONE',  ( 1.000000000000000000, 0.000000000000000000, -0.000000000000000000 ) ) ;
#247 = DESIGN_CONTEXT ( 'detailed design', #135, 'design' ) ;
#248 = CARTESIAN_POINT ( 'NONE',  ( -4.250000000000000000, 0.000000000000000000, 500.0000000000000000 ) ) ;
#249 = EDGE_CURVE ( 'NONE', #152, #110, #107, .T. ) ;
#250 = AXIS2_PLACEMENT_3D ( 'NONE', #99, #175, #173 ) ;
#251 = FACE_OUTER_BOUND ( 'NONE', #239, .T. ) ;
#252 = DIRECTION ( 'NONE',  ( 0.000000000000000000, 0.000000000000000000, 1.000000000000000000 ) ) ;
#253 = EDGE_CURVE ( 'NONE', #12, #204, #44, .T. ) ;
#254 = CARTESIAN_POINT ( 'NONE',  ( -7.000000000000000000, 0.000000000000000000, 5.000000000000000000 ) ) ;
#255 = PERSON_AND_ORGANIZATION_ROLE ( 'creator' ) ;
ENDSEC;
END-ISO-10303-21;
