ISO-10303-21;
HEADER;
FILE_DESCRIPTION (( 'STEP AP203' ),
    '1' );
FILE_NAME ('6e29.STEP',
    '2023-02-12T11:52:07',
    ( '' ),
    ( '' ),
    'SwSTEP 2.0',
    'SolidWorks 2019',
    '' );
FILE_SCHEMA (( 'CONFIG_CONTROL_DESIGN' ));
ENDSEC;

DATA;
#1 = DIRECTION ( 'NONE',  ( -1.000000000000000000, 0.000000000000000000, 0.000000000000000000 ) ) ;
#2 = ADVANCED_FACE ( 'NONE', ( #206 ), #12, .T. ) ;
#3 = APPROVAL_PERSON_ORGANIZATION ( #148, #102, #229 ) ;
#4 = CARTESIAN_POINT ( 'NONE',  ( 5.000000000000000000, 6.123233995736766282E-16, 0.000000000000000000 ) ) ;
#5 =( NAMED_UNIT ( * ) SI_UNIT ( $, .STERADIAN. ) SOLID_ANGLE_UNIT ( ) );
#6 = LOCAL_TIME ( 12, 52, 7.000000000000000000, #60 ) ;
#7 = DIRECTION ( 'NONE',  ( 0.000000000000000000, 0.000000000000000000, 1.000000000000000000 ) ) ;
#8 = CARTESIAN_POINT ( 'NONE',  ( 2.500000000000000000, 3.061616997868382648E-16, 100.0000000000000000 ) ) ;
#9 = PERSON_AND_ORGANIZATION_ROLE ( 'classification_officer' ) ;
#10 = AXIS2_PLACEMENT_3D ( 'NONE', #160, #61, #1 ) ;
#11 = SECURITY_CLASSIFICATION ( '', '', #192 ) ;
#12 = CYLINDRICAL_SURFACE ( 'NONE', #248, 5.000000000000000000 ) ;
#13 = APPLICATION_PROTOCOL_DEFINITION ( 'international standard', 'config_control_design', 1994, #189 ) ;
#14 = DIRECTION ( 'NONE',  ( -0.000000000000000000, -0.000000000000000000, -1.000000000000000000 ) ) ;
#15 = DIRECTION ( 'NONE',  ( 0.000000000000000000, 0.000000000000000000, 1.000000000000000000 ) ) ;
#16 = EDGE_CURVE ( 'NONE', #220, #135, #50, .T. ) ;
#17 = FACE_OUTER_BOUND ( 'NONE', #240, .T. ) ;
#18 = CC_DESIGN_SECURITY_CLASSIFICATION ( #11, ( #81 ) ) ;
#19 = EDGE_CURVE ( 'NONE', #188, #220, #203, .T. ) ;
#20 = AXIS2_PLACEMENT_3D ( 'NONE', #194, #222, #54 ) ;
#21 = ORIENTED_EDGE ( 'NONE', *, *, #44, .F. ) ;
#22 = DIRECTION ( 'NONE',  ( -0.000000000000000000, -0.000000000000000000, -1.000000000000000000 ) ) ;
#23 = APPROVAL ( #95, 'NEURÈENÝ' ) ;
#24 = AXIS2_PLACEMENT_3D ( 'NONE', #59, #39, #255 ) ;
#25 = CARTESIAN_POINT ( 'NONE',  ( 0.000000000000000000, 0.000000000000000000, 3.000000000000000000 ) ) ;
#26 = VECTOR ( 'NONE', #141, 1000.000000000000000 ) ;
#27 = DIRECTION ( 'NONE',  ( 0.000000000000000000, 0.000000000000000000, 1.000000000000000000 ) ) ;
#28 = CC_DESIGN_PERSON_AND_ORGANIZATION_ASSIGNMENT ( #250, #202, ( #81 ) ) ;
#29 = AXIS2_PLACEMENT_3D ( 'NONE', #64, #183, #66 ) ;
#30 = DIRECTION ( 'NONE',  ( 1.000000000000000000, 0.000000000000000000, 0.000000000000000000 ) ) ;
#31 = ADVANCED_FACE ( 'NONE', ( #17 ), #96, .T. ) ;
#32 = CALENDAR_DATE ( 2023, 12, 2 ) ;
#33 = ORIENTED_EDGE ( 'NONE', *, *, #112, .T. ) ;
#34 =( GEOMETRIC_REPRESENTATION_CONTEXT ( 3 ) GLOBAL_UNCERTAINTY_ASSIGNED_CONTEXT ( ( #238 ) ) GLOBAL_UNIT_ASSIGNED_CONTEXT ( ( #165, #163, #5 ) ) REPRESENTATION_CONTEXT ( 'NONE', 'WORKASPACE' ) );
#35 = CALENDAR_DATE ( 2023, 12, 2 ) ;
#36 = EDGE_LOOP ( 'NONE', ( #21, #197, #129, #40 ) ) ;
#37 = CC_DESIGN_DATE_AND_TIME_ASSIGNMENT ( #118, #253, ( #11 ) ) ;
#38 = CARTESIAN_POINT ( 'NONE',  ( 2.500000000000000000, 3.061616997868382648E-16, 100.0000000000000000 ) ) ;
#39 = DIRECTION ( 'NONE',  ( -0.000000000000000000, -0.000000000000000000, -1.000000000000000000 ) ) ;
#40 = ORIENTED_EDGE ( 'NONE', *, *, #214, .F. ) ;
#41 = EDGE_CURVE ( 'NONE', #247, #135, #205, .T. ) ;
#42 = CARTESIAN_POINT ( 'NONE',  ( 0.000000000000000000, 0.000000000000000000, 0.000000000000000000 ) ) ;
#43 = EDGE_LOOP ( 'NONE', ( #140, #67 ) ) ;
#44 = EDGE_CURVE ( 'NONE', #157, #215, #164, .T. ) ;
#45 = DIRECTION ( 'NONE',  ( 1.000000000000000000, 0.000000000000000000, 0.000000000000000000 ) ) ;
#46 = LOCAL_TIME ( 12, 52, 7.000000000000000000, #152 ) ;
#47 = ADVANCED_FACE ( 'NONE', ( #79 ), #228, .T. ) ;
#48 = DIRECTION ( 'NONE',  ( 1.000000000000000000, 0.000000000000000000, -0.000000000000000000 ) ) ;
#49 = VERTEX_POINT ( 'NONE', #100 ) ;
#50 = CIRCLE ( 'NONE', #20, 2.500000000000000000 ) ;
#51 = FACE_OUTER_BOUND ( 'NONE', #117, .T. ) ;
#52 = ORIENTED_EDGE ( 'NONE', *, *, #44, .T. ) ;
#53 = DATE_AND_TIME ( #32, #46 ) ;
#54 = DIRECTION ( 'NONE',  ( 1.000000000000000000, 0.000000000000000000, 0.000000000000000000 ) ) ;
#55 = CC_DESIGN_DATE_AND_TIME_ASSIGNMENT ( #116, #244, ( #252 ) ) ;
#56 = AXIS2_PLACEMENT_3D ( 'NONE', #147, #86, #45 ) ;
#57 = DATE_AND_TIME ( #225, #71 ) ;
#58 = DIRECTION ( 'NONE',  ( -1.000000000000000000, 0.000000000000000000, 0.000000000000000000 ) ) ;
#59 = CARTESIAN_POINT ( 'NONE',  ( 0.000000000000000000, 0.000000000000000000, 3.000000000000000000 ) ) ;
#60 = COORDINATED_UNIVERSAL_TIME_OFFSET ( 1, 0, .AHEAD. ) ;
#61 = DIRECTION ( 'NONE',  ( -0.000000000000000000, -0.000000000000000000, -1.000000000000000000 ) ) ;
#62 = CIRCLE ( 'NONE', #224, 2.500000000000000000 ) ;
#63 = ORIENTED_EDGE ( 'NONE', *, *, #68, .F. ) ;
#64 = CARTESIAN_POINT ( 'NONE',  ( 0.000000000000000000, 0.000000000000000000, 3.000000000000000000 ) ) ;
#65 = DIRECTION ( 'NONE',  ( 0.000000000000000000, 0.000000000000000000, 1.000000000000000000 ) ) ;
#66 = DIRECTION ( 'NONE',  ( 1.000000000000000000, 0.000000000000000000, 0.000000000000000000 ) ) ;
#67 = ORIENTED_EDGE ( 'NONE', *, *, #219, .F. ) ;
#68 = EDGE_CURVE ( 'NONE', #157, #191, #82, .T. ) ;
#69 = DIRECTION ( 'NONE',  ( 1.000000000000000000, 0.000000000000000000, 0.000000000000000000 ) ) ;
#70 = VECTOR ( 'NONE', #22, 1000.000000000000000 ) ;
#71 = LOCAL_TIME ( 12, 52, 7.000000000000000000, #195 ) ;
#72 = PERSON_AND_ORGANIZATION ( #170, #87 ) ;
#73 = PERSON_AND_ORGANIZATION ( #170, #87 ) ;
#74 = APPROVAL ( #131, 'NEURÈENÝ' ) ;
#75 = ORIENTED_EDGE ( 'NONE', *, *, #16, .T. ) ;
#76 = PERSON_AND_ORGANIZATION ( #170, #87 ) ;
#77 = EDGE_LOOP ( 'NONE', ( #63, #200, #254, #33 ) ) ;
#78 = CALENDAR_DATE ( 2023, 12, 2 ) ;
#79 = FACE_OUTER_BOUND ( 'NONE', #36, .T. ) ;
#80 = ORIENTED_EDGE ( 'NONE', *, *, #123, .T. ) ;
#81 = PRODUCT_DEFINITION_FORMATION_WITH_SPECIFIED_SOURCE ( 'LIBOVOLNÝ', '', #175, .NOT_KNOWN. ) ;
#82 = LINE ( 'NONE', #211, #70 ) ;
#83 = CC_DESIGN_PERSON_AND_ORGANIZATION_ASSIGNMENT ( #132, #218, ( #252 ) ) ;
#84 = AXIS2_PLACEMENT_3D ( 'NONE', #241, #7, #85 ) ;
#85 = DIRECTION ( 'NONE',  ( 1.000000000000000000, 0.000000000000000000, 0.000000000000000000 ) ) ;
#86 = DIRECTION ( 'NONE',  ( 0.000000000000000000, 0.000000000000000000, 1.000000000000000000 ) ) ;
#87 = ORGANIZATION ( 'NEURÈENÝ', 'NEURÈENÝ', '' ) ;
#88 = CARTESIAN_POINT ( 'NONE',  ( -2.500000000000000000, 0.000000000000000000, 3.000000000000000000 ) ) ;
#89 = EDGE_LOOP ( 'NONE', ( #80, #52 ) ) ;
#90 = CARTESIAN_POINT ( 'NONE',  ( -2.500000000000000000, 0.000000000000000000, 100.0000000000000000 ) ) ;
#91 = CIRCLE ( 'NONE', #84, 5.000000000000000000 ) ;
#92 = AXIS2_PLACEMENT_3D ( 'NONE', #25, #27, #30 ) ;
#93 = PERSON_AND_ORGANIZATION_ROLE ( 'design_owner' ) ;
#94 = DIRECTION ( 'NONE',  ( -0.000000000000000000, -0.000000000000000000, -1.000000000000000000 ) ) ;
#95 = APPROVAL_STATUS ( 'not_yet_approved' ) ;
#96 = CYLINDRICAL_SURFACE ( 'NONE', #223, 2.500000000000000000 ) ;
#97 = CARTESIAN_POINT ( 'NONE',  ( 0.000000000000000000, 0.000000000000000000, 3.000000000000000000 ) ) ;
#98 = APPROVAL_DATE_TIME ( #53, #74 ) ;
#99 = ADVANCED_FACE ( 'NONE', ( #122 ), #158, .T. ) ;
#100 = CARTESIAN_POINT ( 'NONE',  ( -5.000000000000000000, 0.000000000000000000, 0.000000000000000000 ) ) ;
#101 = DESIGN_CONTEXT ( 'detailed design', #189, 'design' ) ;
#102 = APPROVAL ( #120, 'NEURÈENÝ' ) ;
#103 = CARTESIAN_POINT ( 'NONE',  ( 5.000000000000000000, 6.123233995736766282E-16, 3.000000000000000000 ) ) ;
#104 = DIRECTION ( 'NONE',  ( 1.000000000000000000, 0.000000000000000000, 0.000000000000000000 ) ) ;
#105 = CARTESIAN_POINT ( 'NONE',  ( 0.000000000000000000, 0.000000000000000000, 100.0000000000000000 ) ) ;
#106 = CLOSED_SHELL ( 'NONE', ( #31, #47, #2, #121, #108, #99, #242 ) ) ;
#107 = CARTESIAN_POINT ( 'NONE',  ( 2.500000000000000000, 3.061616997868382648E-16, 3.000000000000000000 ) ) ;
#108 = ADVANCED_FACE ( 'NONE', ( #232 ), #138, .F. ) ;
#109 = CARTESIAN_POINT ( 'NONE',  ( 0.000000000000000000, 0.000000000000000000, 100.0000000000000000 ) ) ;
#110 = APPROVAL_ROLE ( '' ) ;
#111 = ORIENTED_EDGE ( 'NONE', *, *, #41, .F. ) ;
#112 = EDGE_CURVE ( 'NONE', #49, #191, #91, .T. ) ;
#113 = PERSON_AND_ORGANIZATION_ROLE ( 'design_supplier' ) ;
#114 = ORIENTED_EDGE ( 'NONE', *, *, #219, .T. ) ;
#115 = CC_DESIGN_APPROVAL ( #102, ( #252 ) ) ;
#116 = DATE_AND_TIME ( #35, #6 ) ;
#117 = EDGE_LOOP ( 'NONE', ( #133, #142 ) ) ;
#118 = DATE_AND_TIME ( #78, #154 ) ;
#119 = DIRECTION ( 'NONE',  ( -0.000000000000000000, -0.000000000000000000, -1.000000000000000000 ) ) ;
#120 = APPROVAL_STATUS ( 'not_yet_approved' ) ;
#121 = ADVANCED_FACE ( 'NONE', ( #196, #126 ), #217, .T. ) ;
#122 = FACE_OUTER_BOUND ( 'NONE', #151, .T. ) ;
#123 = EDGE_CURVE ( 'NONE', #215, #157, #231, .T. ) ;
#124 = CC_DESIGN_APPROVAL ( #74, ( #81 ) ) ;
#125 = DIRECTION ( 'NONE',  ( 0.000000000000000000, 0.000000000000000000, 1.000000000000000000 ) ) ;
#126 = FACE_OUTER_BOUND ( 'NONE', #89, .T. ) ;
#127 = AXIS2_PLACEMENT_3D ( 'NONE', #97, #171, #251 ) ;
#128 = DIRECTION ( 'NONE',  ( 0.000000000000000000, 0.000000000000000000, 1.000000000000000000 ) ) ;
#129 = ORIENTED_EDGE ( 'NONE', *, *, #209, .T. ) ;
#130 = MANIFOLD_SOLID_BREP ( 'Pøidat vysunutím3', #106 ) ;
#131 = APPROVAL_STATUS ( 'not_yet_approved' ) ;
#132 = PERSON_AND_ORGANIZATION ( #170, #87 ) ;
#133 = ORIENTED_EDGE ( 'NONE', *, *, #182, .T. ) ;
#134 = DATE_AND_TIME ( #246, #207 ) ;
#135 = VERTEX_POINT ( 'NONE', #107 ) ;
#136 = ORIENTED_EDGE ( 'NONE', *, *, #19, .T. ) ;
#137 = PRODUCT_DEFINITION_SHAPE ( 'NONE', 'NONE',  #252 ) ;
#138 = PLANE ( 'NONE',  #161 ) ;
#139 = CIRCLE ( 'NONE', #56, 5.000000000000000000 ) ;
#140 = ORIENTED_EDGE ( 'NONE', *, *, #16, .F. ) ;
#141 = DIRECTION ( 'NONE',  ( -0.000000000000000000, -0.000000000000000000, -1.000000000000000000 ) ) ;
#142 = ORIENTED_EDGE ( 'NONE', *, *, #168, .T. ) ;
#143 = CC_DESIGN_APPROVAL ( #23, ( #11 ) ) ;
#144 = CARTESIAN_POINT ( 'NONE',  ( 0.000000000000000000, 0.000000000000000000, 3.000000000000000000 ) ) ;
#145 = APPLICATION_CONTEXT ( 'configuration controlled 3d designs of mechanical parts and assemblies' ) ;
#146 = APPLICATION_PROTOCOL_DEFINITION ( 'international standard', 'config_control_design', 1994, #145 ) ;
#147 = CARTESIAN_POINT ( 'NONE',  ( 0.000000000000000000, 0.000000000000000000, 0.000000000000000000 ) ) ;
#148 = PERSON_AND_ORGANIZATION ( #170, #87 ) ;
#149 = ORIENTED_EDGE ( 'NONE', *, *, #168, .F. ) ;
#150 = CARTESIAN_POINT ( 'NONE',  ( 0.000000000000000000, 0.000000000000000000, 0.000000000000000000 ) ) ;
#151 = EDGE_LOOP ( 'NONE', ( #111, #243, #136, #75 ) ) ;
#152 = COORDINATED_UNIVERSAL_TIME_OFFSET ( 1, 0, .AHEAD. ) ;
#153 = CARTESIAN_POINT ( 'NONE',  ( 0.000000000000000000, 0.000000000000000000, 100.0000000000000000 ) ) ;
#154 = LOCAL_TIME ( 12, 52, 7.000000000000000000, #173 ) ;
#155 = APPROVAL_ROLE ( '' ) ;
#156 = CARTESIAN_POINT ( 'NONE',  ( 0.000000000000000000, 0.000000000000000000, 3.000000000000000000 ) ) ;
#157 = VERTEX_POINT ( 'NONE', #103 ) ;
#158 = CYLINDRICAL_SURFACE ( 'NONE', #10, 2.500000000000000000 ) ;
#159 = CIRCLE ( 'NONE', #233, 2.500000000000000000 ) ;
#160 = CARTESIAN_POINT ( 'NONE',  ( 0.000000000000000000, 0.000000000000000000, 100.0000000000000000 ) ) ;
#161 = AXIS2_PLACEMENT_3D ( 'NONE', #42, #239, #181 ) ;
#162 = CARTESIAN_POINT ( 'NONE',  ( -5.000000000000000000, 0.000000000000000000, 3.000000000000000000 ) ) ;
#163 =( NAMED_UNIT ( * ) PLANE_ANGLE_UNIT ( ) SI_UNIT ( $, .RADIAN. ) );
#164 = CIRCLE ( 'NONE', #127, 5.000000000000000000 ) ;
#165 =( LENGTH_UNIT ( ) NAMED_UNIT ( * ) SI_UNIT ( .MILLI., .METRE. ) );
#166 = ORIENTED_EDGE ( 'NONE', *, *, #112, .F. ) ;
#167 = COORDINATED_UNIVERSAL_TIME_OFFSET ( 1, 0, .AHEAD. ) ;
#168 = EDGE_CURVE ( 'NONE', #247, #188, #159, .T. ) ;
#169 = DIRECTION ( 'NONE',  ( 1.000000000000000000, 0.000000000000000000, 0.000000000000000000 ) ) ;
#170 = PERSON ( 'NEURÈENÝ', 'NEURÈENÝ', 'NEURÈENÝ', ('NEURÈENÝ'), ('NEURÈENÝ'), ('NEURÈENÝ') ) ;
#171 = DIRECTION ( 'NONE',  ( 0.000000000000000000, 0.000000000000000000, 1.000000000000000000 ) ) ;
#172 = APPROVAL_PERSON_ORGANIZATION ( #190, #23, #155 ) ;
#173 = COORDINATED_UNIVERSAL_TIME_OFFSET ( 1, 0, .AHEAD. ) ;
#174 = CC_DESIGN_PERSON_AND_ORGANIZATION_ASSIGNMENT ( #187, #9, ( #11 ) ) ;
#175 = PRODUCT ( '6e29', '6e29', '', ( #221 ) ) ;
#176 = ADVANCED_BREP_SHAPE_REPRESENTATION ( '6e29', ( #130, #249 ), #34 ) ;
#177 = CIRCLE ( 'NONE', #29, 2.500000000000000000 ) ;
#178 = PRODUCT_RELATED_PRODUCT_CATEGORY ( 'detail', '', ( #175 ) ) ;
#179 = APPROVAL_PERSON_ORGANIZATION ( #73, #74, #110 ) ;
#180 = VECTOR ( 'NONE', #119, 1000.000000000000000 ) ;
#181 = DIRECTION ( 'NONE',  ( 1.000000000000000000, 0.000000000000000000, -0.000000000000000000 ) ) ;
#182 = EDGE_CURVE ( 'NONE', #188, #247, #62, .T. ) ;
#183 = DIRECTION ( 'NONE',  ( 0.000000000000000000, 0.000000000000000000, 1.000000000000000000 ) ) ;
#184 = CARTESIAN_POINT ( 'NONE',  ( 0.000000000000000000, 0.000000000000000000, 100.0000000000000000 ) ) ;
#185 = LINE ( 'NONE', #162, #26 ) ;
#186 = CC_DESIGN_PERSON_AND_ORGANIZATION_ASSIGNMENT ( #72, #93, ( #175 ) ) ;
#187 = PERSON_AND_ORGANIZATION ( #170, #87 ) ;
#188 = VERTEX_POINT ( 'NONE', #90 ) ;
#189 = APPLICATION_CONTEXT ( 'configuration controlled 3d designs of mechanical parts and assemblies' ) ;
#190 = PERSON_AND_ORGANIZATION ( #170, #87 ) ;
#191 = VERTEX_POINT ( 'NONE', #4 ) ;
#192 = SECURITY_CLASSIFICATION_LEVEL ( 'unclassified' ) ;
#193 = CARTESIAN_POINT ( 'NONE',  ( -2.500000000000000000, 0.000000000000000000, 100.0000000000000000 ) ) ;
#194 = CARTESIAN_POINT ( 'NONE',  ( 0.000000000000000000, 0.000000000000000000, 3.000000000000000000 ) ) ;
#195 = COORDINATED_UNIVERSAL_TIME_OFFSET ( 1, 0, .AHEAD. ) ;
#196 = FACE_BOUND ( 'NONE', #43, .T. ) ;
#197 = ORIENTED_EDGE ( 'NONE', *, *, #68, .T. ) ;
#198 = VECTOR ( 'NONE', #14, 1000.000000000000000 ) ;
#199 = APPROVAL_DATE_TIME ( #57, #102 ) ;
#200 = ORIENTED_EDGE ( 'NONE', *, *, #123, .F. ) ;
#201 = ORIENTED_EDGE ( 'NONE', *, *, #209, .F. ) ;
#202 = PERSON_AND_ORGANIZATION_ROLE ( 'creator' ) ;
#203 = LINE ( 'NONE', #193, #198 ) ;
#204 = APPROVAL_DATE_TIME ( #134, #23 ) ;
#205 = LINE ( 'NONE', #38, #180 ) ;
#206 = FACE_OUTER_BOUND ( 'NONE', #77, .T. ) ;
#207 = LOCAL_TIME ( 12, 52, 7.000000000000000000, #167 ) ;
#208 = ORIENTED_EDGE ( 'NONE', *, *, #41, .T. ) ;
#209 = EDGE_CURVE ( 'NONE', #191, #49, #139, .T. ) ;
#210 = AXIS2_PLACEMENT_3D ( 'NONE', #184, #125, #48 ) ;
#211 = CARTESIAN_POINT ( 'NONE',  ( 5.000000000000000000, 6.123233995736766282E-16, 3.000000000000000000 ) ) ;
#212 = DIRECTION ( 'NONE',  ( 1.000000000000000000, 0.000000000000000000, -0.000000000000000000 ) ) ;
#213 = PLANE ( 'NONE',  #210 ) ;
#214 = EDGE_CURVE ( 'NONE', #215, #49, #185, .T. ) ;
#215 = VERTEX_POINT ( 'NONE', #236 ) ;
#216 = AXIS2_PLACEMENT_3D ( 'NONE', #144, #65, #212 ) ;
#217 = PLANE ( 'NONE',  #216 ) ;
#218 = PERSON_AND_ORGANIZATION_ROLE ( 'creator' ) ;
#219 = EDGE_CURVE ( 'NONE', #135, #220, #177, .T. ) ;
#220 = VERTEX_POINT ( 'NONE', #88 ) ;
#221 = MECHANICAL_CONTEXT ( 'NONE', #145, 'mechanical' ) ;
#222 = DIRECTION ( 'NONE',  ( 0.000000000000000000, 0.000000000000000000, 1.000000000000000000 ) ) ;
#223 = AXIS2_PLACEMENT_3D ( 'NONE', #153, #226, #58 ) ;
#224 = AXIS2_PLACEMENT_3D ( 'NONE', #105, #237, #69 ) ;
#225 = CALENDAR_DATE ( 2023, 12, 2 ) ;
#226 = DIRECTION ( 'NONE',  ( -0.000000000000000000, -0.000000000000000000, -1.000000000000000000 ) ) ;
#227 = SHAPE_DEFINITION_REPRESENTATION ( #137, #176 ) ;
#228 = CYLINDRICAL_SURFACE ( 'NONE', #24, 5.000000000000000000 ) ;
#229 = APPROVAL_ROLE ( '' ) ;
#230 = EDGE_LOOP ( 'NONE', ( #166, #201 ) ) ;
#231 = CIRCLE ( 'NONE', #92, 5.000000000000000000 ) ;
#232 = FACE_OUTER_BOUND ( 'NONE', #230, .T. ) ;
#233 = AXIS2_PLACEMENT_3D ( 'NONE', #109, #128, #104 ) ;
#234 = ORIENTED_EDGE ( 'NONE', *, *, #19, .F. ) ;
#235 = CC_DESIGN_PERSON_AND_ORGANIZATION_ASSIGNMENT ( #76, #113, ( #81 ) ) ;
#236 = CARTESIAN_POINT ( 'NONE',  ( -5.000000000000000000, 0.000000000000000000, 3.000000000000000000 ) ) ;
#237 = DIRECTION ( 'NONE',  ( 0.000000000000000000, 0.000000000000000000, 1.000000000000000000 ) ) ;
#238 = UNCERTAINTY_MEASURE_WITH_UNIT (LENGTH_MEASURE( 1.000000000000000082E-05 ), #165, 'distance_accuracy_value', 'NONE');
#239 = DIRECTION ( 'NONE',  ( 0.000000000000000000, 0.000000000000000000, 1.000000000000000000 ) ) ;
#240 = EDGE_LOOP ( 'NONE', ( #149, #208, #114, #234 ) ) ;
#241 = CARTESIAN_POINT ( 'NONE',  ( 0.000000000000000000, 0.000000000000000000, 0.000000000000000000 ) ) ;
#242 = ADVANCED_FACE ( 'NONE', ( #51 ), #213, .T. ) ;
#243 = ORIENTED_EDGE ( 'NONE', *, *, #182, .F. ) ;
#244 = DATE_TIME_ROLE ( 'creation_date' ) ;
#245 = DIRECTION ( 'NONE',  ( -1.000000000000000000, 0.000000000000000000, 0.000000000000000000 ) ) ;
#246 = CALENDAR_DATE ( 2023, 12, 2 ) ;
#247 = VERTEX_POINT ( 'NONE', #8 ) ;
#248 = AXIS2_PLACEMENT_3D ( 'NONE', #156, #94, #245 ) ;
#249 = AXIS2_PLACEMENT_3D ( 'NONE', #150, #15, #169 ) ;
#250 = PERSON_AND_ORGANIZATION ( #170, #87 ) ;
#251 = DIRECTION ( 'NONE',  ( 1.000000000000000000, 0.000000000000000000, 0.000000000000000000 ) ) ;
#252 = PRODUCT_DEFINITION ( 'NEZNÁMÝ', '', #81, #101 ) ;
#253 = DATE_TIME_ROLE ( 'classification_date' ) ;
#254 = ORIENTED_EDGE ( 'NONE', *, *, #214, .T. ) ;
#255 = DIRECTION ( 'NONE',  ( -1.000000000000000000, 0.000000000000000000, 0.000000000000000000 ) ) ;
ENDSEC;
END-ISO-10303-21;
