ISO-10303-21;
HEADER;
FILE_DESCRIPTION (( 'STEP AP203' ),
    '1' );
FILE_NAME ('5cd8.STEP',
    '2023-02-12T12:04:18',
    ( '' ),
    ( '' ),
    'SwSTEP 2.0',
    'SolidWorks 2019',
    '' );
FILE_SCHEMA (( 'CONFIG_CONTROL_DESIGN' ));
ENDSEC;

DATA;
#1 = DIRECTION ( 'NONE',  ( 1.000000000000000000, 0.000000000000000000, 0.000000000000000000 ) ) ;
#2 = ORIENTED_EDGE ( 'NONE', *, *, #153, .F. ) ;
#3 = SECURITY_CLASSIFICATION_LEVEL ( 'unclassified' ) ;
#4 = FACE_OUTER_BOUND ( 'NONE', #111, .T. ) ;
#5 = ORGANIZATION ( 'NEURÈENÝ', 'NEURÈENÝ', '' ) ;
#6 = EDGE_CURVE ( 'NONE', #121, #29, #86, .T. ) ;
#7 =( LENGTH_UNIT ( ) NAMED_UNIT ( * ) SI_UNIT ( .MILLI., .METRE. ) );
#8 = DIRECTION ( 'NONE',  ( -0.000000000000000000, -0.000000000000000000, -1.000000000000000000 ) ) ;
#9 = PERSON_AND_ORGANIZATION ( #184, #5 ) ;
#10 = FACE_OUTER_BOUND ( 'NONE', #40, .T. ) ;
#11 =( NAMED_UNIT ( * ) PLANE_ANGLE_UNIT ( ) SI_UNIT ( $, .RADIAN. ) );
#12 = DIRECTION ( 'NONE',  ( -0.000000000000000000, -0.000000000000000000, -1.000000000000000000 ) ) ;
#13 = DIRECTION ( 'NONE',  ( -1.000000000000000000, 0.000000000000000000, 0.000000000000000000 ) ) ;
#14 = AXIS2_PLACEMENT_3D ( 'NONE', #203, #244, #249 ) ;
#15 = ORIENTED_EDGE ( 'NONE', *, *, #46, .T. ) ;
#16 = PERSON_AND_ORGANIZATION_ROLE ( 'creator' ) ;
#17 = DIRECTION ( 'NONE',  ( 1.000000000000000000, 0.000000000000000000, 0.000000000000000000 ) ) ;
#18 = DIRECTION ( 'NONE',  ( 0.000000000000000000, 0.000000000000000000, 1.000000000000000000 ) ) ;
#19 = PERSON_AND_ORGANIZATION ( #184, #5 ) ;
#20 = AXIS2_PLACEMENT_3D ( 'NONE', #226, #182, #95 ) ;
#21 = CC_DESIGN_PERSON_AND_ORGANIZATION_ASSIGNMENT ( #230, #66, ( #174 ) ) ;
#22 = DIRECTION ( 'NONE',  ( 1.000000000000000000, 0.000000000000000000, 0.000000000000000000 ) ) ;
#23 = CALENDAR_DATE ( 2023, 12, 2 ) ;
#24 = PERSON_AND_ORGANIZATION_ROLE ( 'design_supplier' ) ;
#25 = DIRECTION ( 'NONE',  ( 1.000000000000000000, 0.000000000000000000, -0.000000000000000000 ) ) ;
#26 = APPROVAL_STATUS ( 'not_yet_approved' ) ;
#27 = CARTESIAN_POINT ( 'NONE',  ( 0.000000000000000000, 0.000000000000000000, 0.000000000000000000 ) ) ;
#28 = APPROVAL ( #233, 'NEURÈENÝ' ) ;
#29 = VERTEX_POINT ( 'NONE', #165 ) ;
#30 = VERTEX_POINT ( 'NONE', #76 ) ;
#31 = PRODUCT_RELATED_PRODUCT_CATEGORY ( 'detail', '', ( #225 ) ) ;
#32 = CC_DESIGN_APPROVAL ( #28, ( #174 ) ) ;
#33 = CARTESIAN_POINT ( 'NONE',  ( 0.000000000000000000, 0.000000000000000000, 0.000000000000000000 ) ) ;
#34 = DIRECTION ( 'NONE',  ( 0.000000000000000000, 0.000000000000000000, 1.000000000000000000 ) ) ;
#35 = EDGE_CURVE ( 'NONE', #60, #30, #154, .T. ) ;
#36 = CARTESIAN_POINT ( 'NONE',  ( 0.000000000000000000, 0.000000000000000000, 160.0000000000000000 ) ) ;
#37 = AXIS2_PLACEMENT_3D ( 'NONE', #235, #81, #25 ) ;
#38 = PERSON_AND_ORGANIZATION_ROLE ( 'design_owner' ) ;
#39 = ORIENTED_EDGE ( 'NONE', *, *, #78, .F. ) ;
#40 = EDGE_LOOP ( 'NONE', ( #231, #75 ) ) ;
#41 = LINE ( 'NONE', #252, #222 ) ;
#42 = EDGE_LOOP ( 'NONE', ( #120, #218, #94, #53 ) ) ;
#43 = AXIS2_PLACEMENT_3D ( 'NONE', #69, #214, #13 ) ;
#44 = LINE ( 'NONE', #74, #234 ) ;
#45 = DIRECTION ( 'NONE',  ( 0.000000000000000000, 0.000000000000000000, 1.000000000000000000 ) ) ;
#46 = EDGE_CURVE ( 'NONE', #240, #29, #41, .T. ) ;
#47 = DIRECTION ( 'NONE',  ( 1.000000000000000000, 0.000000000000000000, -0.000000000000000000 ) ) ;
#48 = PRODUCT_DEFINITION ( 'NEZNÁMÝ', '', #101, #181 ) ;
#49 = CIRCLE ( 'NONE', #189, 3.500000000000000000 ) ;
#50 = LOCAL_TIME ( 13, 4, 18.00000000000000000, #255 ) ;
#51 = DIRECTION ( 'NONE',  ( -1.000000000000000000, 0.000000000000000000, 0.000000000000000000 ) ) ;
#52 = ADVANCED_FACE ( 'NONE', ( #212 ), #192, .T. ) ;
#53 = ORIENTED_EDGE ( 'NONE', *, *, #229, .F. ) ;
#54 = AXIS2_PLACEMENT_3D ( 'NONE', #215, #166, #47 ) ;
#55 = DIRECTION ( 'NONE',  ( 0.000000000000000000, 0.000000000000000000, 1.000000000000000000 ) ) ;
#56 = EDGE_LOOP ( 'NONE', ( #170, #39, #151, #209 ) ) ;
#57 = LINE ( 'NONE', #220, #160 ) ;
#58 = MECHANICAL_CONTEXT ( 'NONE', #219, 'mechanical' ) ;
#59 = DIRECTION ( 'NONE',  ( 1.000000000000000000, 0.000000000000000000, 0.000000000000000000 ) ) ;
#60 = VERTEX_POINT ( 'NONE', #108 ) ;
#61 =( GEOMETRIC_REPRESENTATION_CONTEXT ( 3 ) GLOBAL_UNCERTAINTY_ASSIGNED_CONTEXT ( ( #161 ) ) GLOBAL_UNIT_ASSIGNED_CONTEXT ( ( #7, #11, #224 ) ) REPRESENTATION_CONTEXT ( 'NONE', 'WORKASPACE' ) );
#62 = PERSON_AND_ORGANIZATION ( #184, #5 ) ;
#63 = DIRECTION ( 'NONE',  ( 1.000000000000000000, 0.000000000000000000, 0.000000000000000000 ) ) ;
#64 = PERSON_AND_ORGANIZATION ( #184, #5 ) ;
#65 = CARTESIAN_POINT ( 'NONE',  ( 0.000000000000000000, 0.000000000000000000, 160.0000000000000000 ) ) ;
#66 = PERSON_AND_ORGANIZATION_ROLE ( 'classification_officer' ) ;
#67 = CIRCLE ( 'NONE', #99, 1.750000000000000000 ) ;
#68 = COORDINATED_UNIVERSAL_TIME_OFFSET ( 1, 0, .AHEAD. ) ;
#69 = CARTESIAN_POINT ( 'NONE',  ( 0.000000000000000000, 0.000000000000000000, 3.000000000000000000 ) ) ;
#70 = EDGE_CURVE ( 'NONE', #29, #121, #139, .T. ) ;
#71 = AXIS2_PLACEMENT_3D ( 'NONE', #27, #142, #59 ) ;
#72 = FACE_OUTER_BOUND ( 'NONE', #42, .T. ) ;
#73 = ADVANCED_FACE ( 'NONE', ( #159, #10 ), #138, .T. ) ;
#74 = CARTESIAN_POINT ( 'NONE',  ( -1.750000000000000000, 0.000000000000000000, 160.0000000000000000 ) ) ;
#75 = ORIENTED_EDGE ( 'NONE', *, *, #116, .T. ) ;
#76 = CARTESIAN_POINT ( 'NONE',  ( -1.750000000000000000, 0.000000000000000000, 3.000000000000000000 ) ) ;
#77 = CALENDAR_DATE ( 2023, 12, 2 ) ;
#78 = EDGE_CURVE ( 'NONE', #100, #200, #67, .T. ) ;
#79 = EDGE_LOOP ( 'NONE', ( #162, #187 ) ) ;
#80 = SHAPE_DEFINITION_REPRESENTATION ( #178, #243 ) ;
#81 = DIRECTION ( 'NONE',  ( 0.000000000000000000, 0.000000000000000000, 1.000000000000000000 ) ) ;
#82 = APPROVAL_ROLE ( '' ) ;
#83 = PERSON_AND_ORGANIZATION ( #184, #5 ) ;
#84 = PERSON_AND_ORGANIZATION ( #184, #5 ) ;
#85 = CC_DESIGN_PERSON_AND_ORGANIZATION_ASSIGNMENT ( #19, #183, ( #48 ) ) ;
#86 = CIRCLE ( 'NONE', #20, 3.500000000000000000 ) ;
#87 = FACE_OUTER_BOUND ( 'NONE', #79, .T. ) ;
#88 = AXIS2_PLACEMENT_3D ( 'NONE', #118, #55, #22 ) ;
#89 = DIRECTION ( 'NONE',  ( 0.000000000000000000, 0.000000000000000000, 1.000000000000000000 ) ) ;
#90 = ADVANCED_FACE ( 'NONE', ( #4 ), #149, .T. ) ;
#91 = DIRECTION ( 'NONE',  ( 1.000000000000000000, 0.000000000000000000, 0.000000000000000000 ) ) ;
#92 = FACE_OUTER_BOUND ( 'NONE', #56, .T. ) ;
#93 = ADVANCED_FACE ( 'NONE', ( #134 ), #112, .F. ) ;
#94 = ORIENTED_EDGE ( 'NONE', *, *, #35, .T. ) ;
#95 = DIRECTION ( 'NONE',  ( 1.000000000000000000, 0.000000000000000000, 0.000000000000000000 ) ) ;
#96 = CYLINDRICAL_SURFACE ( 'NONE', #14, 1.750000000000000000 ) ;
#97 = DATE_AND_TIME ( #102, #247 ) ;
#98 = ORIENTED_EDGE ( 'NONE', *, *, #35, .F. ) ;
#99 = AXIS2_PLACEMENT_3D ( 'NONE', #65, #45, #1 ) ;
#100 = VERTEX_POINT ( 'NONE', #125 ) ;
#101 = PRODUCT_DEFINITION_FORMATION_WITH_SPECIFIED_SOURCE ( 'LIBOVOLNÝ', '', #225, .NOT_KNOWN. ) ;
#102 = CALENDAR_DATE ( 2023, 12, 2 ) ;
#103 = DATE_AND_TIME ( #77, #107 ) ;
#104 = CARTESIAN_POINT ( 'NONE',  ( 0.000000000000000000, 0.000000000000000000, 3.000000000000000000 ) ) ;
#105 = DIRECTION ( 'NONE',  ( 0.000000000000000000, 0.000000000000000000, 1.000000000000000000 ) ) ;
#106 = LOCAL_TIME ( 13, 4, 18.00000000000000000, #152 ) ;
#107 = LOCAL_TIME ( 13, 4, 18.00000000000000000, #228 ) ;
#108 = CARTESIAN_POINT ( 'NONE',  ( 1.750000000000000000, 2.143131898507868297E-16, 3.000000000000000000 ) ) ;
#109 = CIRCLE ( 'NONE', #164, 1.750000000000000000 ) ;
#110 = CC_DESIGN_PERSON_AND_ORGANIZATION_ASSIGNMENT ( #64, #24, ( #101 ) ) ;
#111 = EDGE_LOOP ( 'NONE', ( #114, #15, #246, #202 ) ) ;
#112 = PLANE ( 'NONE',  #54 ) ;
#113 = CC_DESIGN_DATE_AND_TIME_ASSIGNMENT ( #148, #129, ( #174 ) ) ;
#114 = ORIENTED_EDGE ( 'NONE', *, *, #116, .F. ) ;
#115 = CALENDAR_DATE ( 2023, 12, 2 ) ;
#116 = EDGE_CURVE ( 'NONE', #240, #250, #140, .T. ) ;
#117 = CARTESIAN_POINT ( 'NONE',  ( 1.750000000000000000, 2.143131898507868297E-16, 160.0000000000000000 ) ) ;
#118 = CARTESIAN_POINT ( 'NONE',  ( 0.000000000000000000, 0.000000000000000000, 3.000000000000000000 ) ) ;
#119 = LINE ( 'NONE', #197, #150 ) ;
#120 = ORIENTED_EDGE ( 'NONE', *, *, #185, .F. ) ;
#121 = VERTEX_POINT ( 'NONE', #175 ) ;
#122 = CLOSED_SHELL ( 'NONE', ( #177, #90, #52, #73, #93, #206, #126 ) ) ;
#123 = CC_DESIGN_APPROVAL ( #155, ( #48 ) ) ;
#124 = CARTESIAN_POINT ( 'NONE',  ( 0.000000000000000000, 0.000000000000000000, 3.000000000000000000 ) ) ;
#125 = CARTESIAN_POINT ( 'NONE',  ( -1.750000000000000000, 0.000000000000000000, 160.0000000000000000 ) ) ;
#126 = ADVANCED_FACE ( 'NONE', ( #87 ), #242, .T. ) ;
#127 = DATE_TIME_ROLE ( 'creation_date' ) ;
#128 = EDGE_LOOP ( 'NONE', ( #195, #98 ) ) ;
#129 = DATE_TIME_ROLE ( 'classification_date' ) ;
#130 = DIRECTION ( 'NONE',  ( -1.000000000000000000, 0.000000000000000000, 0.000000000000000000 ) ) ;
#131 = CC_DESIGN_APPROVAL ( #201, ( #101 ) ) ;
#132 = CALENDAR_DATE ( 2023, 12, 2 ) ;
#133 = APPLICATION_PROTOCOL_DEFINITION ( 'international standard', 'config_control_design', 1994, #196 ) ;
#134 = FACE_OUTER_BOUND ( 'NONE', #248, .T. ) ;
#135 = ORIENTED_EDGE ( 'NONE', *, *, #241, .T. ) ;
#136 = CARTESIAN_POINT ( 'NONE',  ( 0.000000000000000000, 0.000000000000000000, 160.0000000000000000 ) ) ;
#137 = LOCAL_TIME ( 13, 4, 18.00000000000000000, #68 ) ;
#138 = PLANE ( 'NONE',  #37 ) ;
#139 = CIRCLE ( 'NONE', #144, 3.500000000000000000 ) ;
#140 = CIRCLE ( 'NONE', #210, 3.500000000000000000 ) ;
#141 = AXIS2_PLACEMENT_3D ( 'NONE', #217, #158, #51 ) ;
#142 = DIRECTION ( 'NONE',  ( 0.000000000000000000, 0.000000000000000000, 1.000000000000000000 ) ) ;
#143 = ORIENTED_EDGE ( 'NONE', *, *, #6, .F. ) ;
#144 = AXIS2_PLACEMENT_3D ( 'NONE', #33, #176, #17 ) ;
#145 = DIRECTION ( 'NONE',  ( -0.000000000000000000, -0.000000000000000000, -1.000000000000000000 ) ) ;
#146 = APPROVAL_DATE_TIME ( #213, #28 ) ;
#147 = APPLICATION_PROTOCOL_DEFINITION ( 'international standard', 'config_control_design', 1994, #219 ) ;
#148 = DATE_AND_TIME ( #23, #50 ) ;
#149 = CYLINDRICAL_SURFACE ( 'NONE', #188, 3.500000000000000000 ) ;
#150 = VECTOR ( 'NONE', #172, 1000.000000000000000 ) ;
#151 = ORIENTED_EDGE ( 'NONE', *, *, #229, .T. ) ;
#152 = COORDINATED_UNIVERSAL_TIME_OFFSET ( 1, 0, .AHEAD. ) ;
#153 = EDGE_CURVE ( 'NONE', #250, #240, #49, .T. ) ;
#154 = CIRCLE ( 'NONE', #186, 1.750000000000000000 ) ;
#155 = APPROVAL ( #216, 'NEURÈENÝ' ) ;
#156 = DIRECTION ( 'NONE',  ( 1.000000000000000000, 0.000000000000000000, -0.000000000000000000 ) ) ;
#157 = CARTESIAN_POINT ( 'NONE',  ( 3.500000000000000000, 4.286263797015736595E-16, 3.000000000000000000 ) ) ;
#158 = DIRECTION ( 'NONE',  ( -0.000000000000000000, -0.000000000000000000, -1.000000000000000000 ) ) ;
#159 = FACE_BOUND ( 'NONE', #128, .T. ) ;
#160 = VECTOR ( 'NONE', #12, 1000.000000000000000 ) ;
#161 = UNCERTAINTY_MEASURE_WITH_UNIT (LENGTH_MEASURE( 1.000000000000000082E-05 ), #7, 'distance_accuracy_value', 'NONE');
#162 = ORIENTED_EDGE ( 'NONE', *, *, #78, .T. ) ;
#163 = MANIFOLD_SOLID_BREP ( 'Pøidat vysunutím3', #122 ) ;
#164 = AXIS2_PLACEMENT_3D ( 'NONE', #36, #167, #237 ) ;
#165 = CARTESIAN_POINT ( 'NONE',  ( 3.500000000000000000, 4.286263797015736595E-16, 0.000000000000000000 ) ) ;
#166 = DIRECTION ( 'NONE',  ( 0.000000000000000000, 0.000000000000000000, 1.000000000000000000 ) ) ;
#167 = DIRECTION ( 'NONE',  ( 0.000000000000000000, 0.000000000000000000, 1.000000000000000000 ) ) ;
#168 = APPROVAL_DATE_TIME ( #103, #201 ) ;
#169 = APPROVAL_ROLE ( '' ) ;
#170 = ORIENTED_EDGE ( 'NONE', *, *, #199, .F. ) ;
#171 = CC_DESIGN_SECURITY_CLASSIFICATION ( #174, ( #101 ) ) ;
#172 = DIRECTION ( 'NONE',  ( -0.000000000000000000, -0.000000000000000000, -1.000000000000000000 ) ) ;
#173 = DIRECTION ( 'NONE',  ( 1.000000000000000000, 0.000000000000000000, 0.000000000000000000 ) ) ;
#174 = SECURITY_CLASSIFICATION ( '', '', #3 ) ;
#175 = CARTESIAN_POINT ( 'NONE',  ( -3.500000000000000000, 0.000000000000000000, 0.000000000000000000 ) ) ;
#176 = DIRECTION ( 'NONE',  ( 0.000000000000000000, 0.000000000000000000, 1.000000000000000000 ) ) ;
#177 = ADVANCED_FACE ( 'NONE', ( #72 ), #96, .T. ) ;
#178 = PRODUCT_DEFINITION_SHAPE ( 'NONE', 'NONE',  #48 ) ;
#179 = ORIENTED_EDGE ( 'NONE', *, *, #70, .F. ) ;
#180 = APPROVAL_PERSON_ORGANIZATION ( #84, #28, #82 ) ;
#181 = DESIGN_CONTEXT ( 'detailed design', #196, 'design' ) ;
#182 = DIRECTION ( 'NONE',  ( 0.000000000000000000, 0.000000000000000000, 1.000000000000000000 ) ) ;
#183 = PERSON_AND_ORGANIZATION_ROLE ( 'creator' ) ;
#184 = PERSON ( 'NEURÈENÝ', 'NEURÈENÝ', 'NEURÈENÝ', ('NEURÈENÝ'), ('NEURÈENÝ'), ('NEURÈENÝ') ) ;
#185 = EDGE_CURVE ( 'NONE', #200, #100, #109, .T. ) ;
#186 = AXIS2_PLACEMENT_3D ( 'NONE', #124, #18, #63 ) ;
#187 = ORIENTED_EDGE ( 'NONE', *, *, #185, .T. ) ;
#188 = AXIS2_PLACEMENT_3D ( 'NONE', #104, #232, #130 ) ;
#189 = AXIS2_PLACEMENT_3D ( 'NONE', #198, #34, #91 ) ;
#190 = APPROVAL_DATE_TIME ( #253, #155 ) ;
#191 = APPROVAL_ROLE ( '' ) ;
#192 = CYLINDRICAL_SURFACE ( 'NONE', #43, 3.500000000000000000 ) ;
#193 = CARTESIAN_POINT ( 'NONE',  ( -3.500000000000000000, 0.000000000000000000, 3.000000000000000000 ) ) ;
#194 = CIRCLE ( 'NONE', #88, 1.750000000000000000 ) ;
#195 = ORIENTED_EDGE ( 'NONE', *, *, #221, .F. ) ;
#196 = APPLICATION_CONTEXT ( 'configuration controlled 3d designs of mechanical parts and assemblies' ) ;
#197 = CARTESIAN_POINT ( 'NONE',  ( -3.500000000000000000, 0.000000000000000000, 3.000000000000000000 ) ) ;
#198 = CARTESIAN_POINT ( 'NONE',  ( 0.000000000000000000, 0.000000000000000000, 3.000000000000000000 ) ) ;
#199 = EDGE_CURVE ( 'NONE', #200, #60, #57, .T. ) ;
#200 = VERTEX_POINT ( 'NONE', #117 ) ;
#201 = APPROVAL ( #26, 'NEURÈENÝ' ) ;
#202 = ORIENTED_EDGE ( 'NONE', *, *, #241, .F. ) ;
#203 = CARTESIAN_POINT ( 'NONE',  ( 0.000000000000000000, 0.000000000000000000, 160.0000000000000000 ) ) ;
#204 = ORIENTED_EDGE ( 'NONE', *, *, #46, .F. ) ;
#205 = ORIENTED_EDGE ( 'NONE', *, *, #6, .T. ) ;
#206 = ADVANCED_FACE ( 'NONE', ( #92 ), #239, .T. ) ;
#207 = CARTESIAN_POINT ( 'NONE',  ( 0.000000000000000000, 0.000000000000000000, 3.000000000000000000 ) ) ;
#208 = PERSON_AND_ORGANIZATION ( #184, #5 ) ;
#209 = ORIENTED_EDGE ( 'NONE', *, *, #221, .T. ) ;
#210 = AXIS2_PLACEMENT_3D ( 'NONE', #207, #105, #173 ) ;
#211 = CC_DESIGN_PERSON_AND_ORGANIZATION_ASSIGNMENT ( #62, #16, ( #101 ) ) ;
#212 = FACE_OUTER_BOUND ( 'NONE', #251, .T. ) ;
#213 = DATE_AND_TIME ( #132, #137 ) ;
#214 = DIRECTION ( 'NONE',  ( -0.000000000000000000, -0.000000000000000000, -1.000000000000000000 ) ) ;
#215 = CARTESIAN_POINT ( 'NONE',  ( 0.000000000000000000, 0.000000000000000000, 0.000000000000000000 ) ) ;
#216 = APPROVAL_STATUS ( 'not_yet_approved' ) ;
#217 = CARTESIAN_POINT ( 'NONE',  ( 0.000000000000000000, 0.000000000000000000, 160.0000000000000000 ) ) ;
#218 = ORIENTED_EDGE ( 'NONE', *, *, #199, .T. ) ;
#219 = APPLICATION_CONTEXT ( 'configuration controlled 3d designs of mechanical parts and assemblies' ) ;
#220 = CARTESIAN_POINT ( 'NONE',  ( 1.750000000000000000, 2.143131898507868297E-16, 160.0000000000000000 ) ) ;
#221 = EDGE_CURVE ( 'NONE', #30, #60, #194, .T. ) ;
#222 = VECTOR ( 'NONE', #145, 1000.000000000000000 ) ;
#223 = APPROVAL_PERSON_ORGANIZATION ( #208, #155, #191 ) ;
#224 =( NAMED_UNIT ( * ) SI_UNIT ( $, .STERADIAN. ) SOLID_ANGLE_UNIT ( ) );
#225 = PRODUCT ( '5cd8', '5cd8', '', ( #58 ) ) ;
#226 = CARTESIAN_POINT ( 'NONE',  ( 0.000000000000000000, 0.000000000000000000, 0.000000000000000000 ) ) ;
#227 = COORDINATED_UNIVERSAL_TIME_OFFSET ( 1, 0, .AHEAD. ) ;
#228 = COORDINATED_UNIVERSAL_TIME_OFFSET ( 1, 0, .AHEAD. ) ;
#229 = EDGE_CURVE ( 'NONE', #100, #30, #44, .T. ) ;
#230 = PERSON_AND_ORGANIZATION ( #184, #5 ) ;
#231 = ORIENTED_EDGE ( 'NONE', *, *, #153, .T. ) ;
#232 = DIRECTION ( 'NONE',  ( -0.000000000000000000, -0.000000000000000000, -1.000000000000000000 ) ) ;
#233 = APPROVAL_STATUS ( 'not_yet_approved' ) ;
#234 = VECTOR ( 'NONE', #8, 1000.000000000000000 ) ;
#235 = CARTESIAN_POINT ( 'NONE',  ( 0.000000000000000000, 0.000000000000000000, 3.000000000000000000 ) ) ;
#236 = CC_DESIGN_PERSON_AND_ORGANIZATION_ASSIGNMENT ( #9, #38, ( #225 ) ) ;
#237 = DIRECTION ( 'NONE',  ( 1.000000000000000000, 0.000000000000000000, 0.000000000000000000 ) ) ;
#238 = APPROVAL_PERSON_ORGANIZATION ( #83, #201, #169 ) ;
#239 = CYLINDRICAL_SURFACE ( 'NONE', #141, 1.750000000000000000 ) ;
#240 = VERTEX_POINT ( 'NONE', #157 ) ;
#241 = EDGE_CURVE ( 'NONE', #250, #121, #119, .T. ) ;
#242 = PLANE ( 'NONE',  #245 ) ;
#243 = ADVANCED_BREP_SHAPE_REPRESENTATION ( '5cd8', ( #163, #71 ), #61 ) ;
#244 = DIRECTION ( 'NONE',  ( -0.000000000000000000, -0.000000000000000000, -1.000000000000000000 ) ) ;
#245 = AXIS2_PLACEMENT_3D ( 'NONE', #136, #89, #156 ) ;
#246 = ORIENTED_EDGE ( 'NONE', *, *, #70, .T. ) ;
#247 = LOCAL_TIME ( 13, 4, 18.00000000000000000, #227 ) ;
#248 = EDGE_LOOP ( 'NONE', ( #143, #179 ) ) ;
#249 = DIRECTION ( 'NONE',  ( -1.000000000000000000, 0.000000000000000000, 0.000000000000000000 ) ) ;
#250 = VERTEX_POINT ( 'NONE', #193 ) ;
#251 = EDGE_LOOP ( 'NONE', ( #204, #2, #135, #205 ) ) ;
#252 = CARTESIAN_POINT ( 'NONE',  ( 3.500000000000000000, 4.286263797015736595E-16, 3.000000000000000000 ) ) ;
#253 = DATE_AND_TIME ( #115, #106 ) ;
#254 = CC_DESIGN_DATE_AND_TIME_ASSIGNMENT ( #97, #127, ( #48 ) ) ;
#255 = COORDINATED_UNIVERSAL_TIME_OFFSET ( 1, 0, .AHEAD. ) ;
ENDSEC;
END-ISO-10303-21;
