ISO-10303-21;
HEADER;
FILE_DESCRIPTION (( 'STEP AP203' ),
    '1' );
FILE_NAME ('de39.STEP',
    '2023-02-12T11:08:34',
    ( '' ),
    ( '' ),
    'SwSTEP 2.0',
    'SolidWorks 2019',
    '' );
FILE_SCHEMA (( 'CONFIG_CONTROL_DESIGN' ));
ENDSEC;

DATA;
#1 = CARTESIAN_POINT ( 'NONE',  ( 0.000000000000000000, 0.000000000000000000, 0.000000000000000000 ) ) ;
#2 = DIRECTION ( 'NONE',  ( 1.000000000000000000, 0.000000000000000000, 0.000000000000000000 ) ) ;
#3 = CALENDAR_DATE ( 2023, 12, 2 ) ;
#4 = DATE_AND_TIME ( #3, #174 ) ;
#5 = EDGE_CURVE ( 'NONE', #158, #68, #129, .T. ) ;
#6 = EDGE_LOOP ( 'NONE', ( #56, #19 ) ) ;
#7 = VECTOR ( 'NONE', #184, 1000.000000000000000 ) ;
#8 = CARTESIAN_POINT ( 'NONE',  ( 0.000000000000000000, 0.000000000000000000, 0.000000000000000000 ) ) ;
#9 = CC_DESIGN_APPROVAL ( #125, ( #82 ) ) ;
#10 = CC_DESIGN_DATE_AND_TIME_ASSIGNMENT ( #4, #76, ( #199 ) ) ;
#11 = PERSON_AND_ORGANIZATION ( #230, #127 ) ;
#12 = EDGE_CURVE ( 'NONE', #158, #112, #152, .T. ) ;
#13 = CARTESIAN_POINT ( 'NONE',  ( 0.000000000000000000, 0.000000000000000000, 5.000000000000000000 ) ) ;
#14 = VERTEX_POINT ( 'NONE', #232 ) ;
#15 = SHAPE_DEFINITION_REPRESENTATION ( #67, #146 ) ;
#16 = MECHANICAL_CONTEXT ( 'NONE', #28, 'mechanical' ) ;
#17 = UNCERTAINTY_MEASURE_WITH_UNIT (LENGTH_MEASURE( 1.000000000000000082E-05 ), #191, 'distance_accuracy_value', 'NONE');
#18 = DIRECTION ( 'NONE',  ( -1.000000000000000000, 0.000000000000000000, 0.000000000000000000 ) ) ;
#19 = ORIENTED_EDGE ( 'NONE', *, *, #27, .T. ) ;
#20 = AXIS2_PLACEMENT_3D ( 'NONE', #8, #46, #69 ) ;
#21 = CARTESIAN_POINT ( 'NONE',  ( -4.500000000000000000, 0.000000000000000000, 250.0000000000000000 ) ) ;
#22 = APPROVAL ( #247, 'NEURÈENÝ' ) ;
#23 = APPROVAL_STATUS ( 'not_yet_approved' ) ;
#24 = APPROVAL_STATUS ( 'not_yet_approved' ) ;
#25 = DIRECTION ( 'NONE',  ( 1.000000000000000000, 0.000000000000000000, 0.000000000000000000 ) ) ;
#26 = ORIENTED_EDGE ( 'NONE', *, *, #12, .T. ) ;
#27 = EDGE_CURVE ( 'NONE', #68, #158, #228, .T. ) ;
#28 = APPLICATION_CONTEXT ( 'configuration controlled 3d designs of mechanical parts and assemblies' ) ;
#29 =( GEOMETRIC_REPRESENTATION_CONTEXT ( 3 ) GLOBAL_UNCERTAINTY_ASSIGNED_CONTEXT ( ( #17 ) ) GLOBAL_UNIT_ASSIGNED_CONTEXT ( ( #191, #99, #209 ) ) REPRESENTATION_CONTEXT ( 'NONE', 'WORKASPACE' ) );
#30 = LINE ( 'NONE', #164, #72 ) ;
#31 = DIRECTION ( 'NONE',  ( 1.000000000000000000, 0.000000000000000000, 0.000000000000000000 ) ) ;
#32 = DIRECTION ( 'NONE',  ( 0.000000000000000000, 0.000000000000000000, 1.000000000000000000 ) ) ;
#33 = PRODUCT_RELATED_PRODUCT_CATEGORY ( 'detail', '', ( #197 ) ) ;
#34 = DIRECTION ( 'NONE',  ( 1.000000000000000000, 0.000000000000000000, -0.000000000000000000 ) ) ;
#35 = ORIENTED_EDGE ( 'NONE', *, *, #41, .T. ) ;
#36 = CARTESIAN_POINT ( 'NONE',  ( 0.000000000000000000, 0.000000000000000000, 5.000000000000000000 ) ) ;
#37 = AXIS2_PLACEMENT_3D ( 'NONE', #36, #162, #186 ) ;
#38 = EDGE_LOOP ( 'NONE', ( #84, #183, #35, #74 ) ) ;
#39 = DIRECTION ( 'NONE',  ( 0.000000000000000000, 0.000000000000000000, 1.000000000000000000 ) ) ;
#40 = PERSON_AND_ORGANIZATION_ROLE ( 'creator' ) ;
#41 = EDGE_CURVE ( 'NONE', #208, #112, #55, .T. ) ;
#42 = CARTESIAN_POINT ( 'NONE',  ( 0.000000000000000000, 0.000000000000000000, 250.0000000000000000 ) ) ;
#43 = CALENDAR_DATE ( 2023, 12, 2 ) ;
#44 = AXIS2_PLACEMENT_3D ( 'NONE', #86, #108, #252 ) ;
#45 = COORDINATED_UNIVERSAL_TIME_OFFSET ( 1, 0, .AHEAD. ) ;
#46 = DIRECTION ( 'NONE',  ( 0.000000000000000000, 0.000000000000000000, 1.000000000000000000 ) ) ;
#47 = AXIS2_PLACEMENT_3D ( 'NONE', #49, #204, #31 ) ;
#48 = CYLINDRICAL_SURFACE ( 'NONE', #142, 7.000000000000000000 ) ;
#49 = CARTESIAN_POINT ( 'NONE',  ( 0.000000000000000000, 0.000000000000000000, 0.000000000000000000 ) ) ;
#50 = CARTESIAN_POINT ( 'NONE',  ( 0.000000000000000000, 0.000000000000000000, 250.0000000000000000 ) ) ;
#51 = CIRCLE ( 'NONE', #246, 4.500000000000000000 ) ;
#52 = CC_DESIGN_PERSON_AND_ORGANIZATION_ASSIGNMENT ( #173, #126, ( #163 ) ) ;
#53 = DIRECTION ( 'NONE',  ( -0.000000000000000000, -0.000000000000000000, -1.000000000000000000 ) ) ;
#54 = DIRECTION ( 'NONE',  ( 1.000000000000000000, 0.000000000000000000, 0.000000000000000000 ) ) ;
#55 = CIRCLE ( 'NONE', #159, 7.000000000000000000 ) ;
#56 = ORIENTED_EDGE ( 'NONE', *, *, #5, .T. ) ;
#57 = ADVANCED_FACE ( 'NONE', ( #235, #207 ), #144, .T. ) ;
#58 = CARTESIAN_POINT ( 'NONE',  ( 0.000000000000000000, 0.000000000000000000, 5.000000000000000000 ) ) ;
#59 = CALENDAR_DATE ( 2023, 12, 2 ) ;
#60 = CIRCLE ( 'NONE', #114, 7.000000000000000000 ) ;
#61 = EDGE_CURVE ( 'NONE', #180, #134, #185, .T. ) ;
#62 = CYLINDRICAL_SURFACE ( 'NONE', #176, 7.000000000000000000 ) ;
#63 = APPROVAL_PERSON_ORGANIZATION ( #11, #22, #131 ) ;
#64 = COORDINATED_UNIVERSAL_TIME_OFFSET ( 1, 0, .AHEAD. ) ;
#65 = VECTOR ( 'NONE', #253, 1000.000000000000000 ) ;
#66 = CC_DESIGN_APPROVAL ( #22, ( #199 ) ) ;
#67 = PRODUCT_DEFINITION_SHAPE ( 'NONE', 'NONE',  #82 ) ;
#68 = VERTEX_POINT ( 'NONE', #77 ) ;
#69 = DIRECTION ( 'NONE',  ( 1.000000000000000000, 0.000000000000000000, -0.000000000000000000 ) ) ;
#70 = CARTESIAN_POINT ( 'NONE',  ( 4.500000000000000000, 5.510910596163088569E-16, 250.0000000000000000 ) ) ;
#71 = ORIENTED_EDGE ( 'NONE', *, *, #133, .F. ) ;
#72 = VECTOR ( 'NONE', #53, 1000.000000000000000 ) ;
#73 = ORIENTED_EDGE ( 'NONE', *, *, #227, .F. ) ;
#74 = ORIENTED_EDGE ( 'NONE', *, *, #12, .F. ) ;
#75 = CYLINDRICAL_SURFACE ( 'NONE', #226, 4.500000000000000000 ) ;
#76 = DATE_TIME_ROLE ( 'classification_date' ) ;
#77 = CARTESIAN_POINT ( 'NONE',  ( 7.000000000000000000, 8.572527594031473190E-16, 5.000000000000000000 ) ) ;
#78 = ORIENTED_EDGE ( 'NONE', *, *, #190, .T. ) ;
#79 = DIRECTION ( 'NONE',  ( 1.000000000000000000, 0.000000000000000000, 0.000000000000000000 ) ) ;
#80 = APPROVAL_ROLE ( '' ) ;
#81 = PERSON_AND_ORGANIZATION ( #230, #127 ) ;
#82 = PRODUCT_DEFINITION ( 'NEZNÁMÝ', '', #163, #147 ) ;
#83 = DIRECTION ( 'NONE',  ( -0.000000000000000000, -0.000000000000000000, -1.000000000000000000 ) ) ;
#84 = ORIENTED_EDGE ( 'NONE', *, *, #27, .F. ) ;
#85 = DIRECTION ( 'NONE',  ( 1.000000000000000000, 0.000000000000000000, 0.000000000000000000 ) ) ;
#86 = CARTESIAN_POINT ( 'NONE',  ( 0.000000000000000000, 0.000000000000000000, 250.0000000000000000 ) ) ;
#87 = LOCAL_TIME ( 12, 8, 34.00000000000000000, #150 ) ;
#88 = CC_DESIGN_PERSON_AND_ORGANIZATION_ASSIGNMENT ( #145, #221, ( #82 ) ) ;
#89 = FACE_OUTER_BOUND ( 'NONE', #213, .T. ) ;
#90 = APPROVAL_ROLE ( '' ) ;
#91 = CC_DESIGN_DATE_AND_TIME_ASSIGNMENT ( #195, #222, ( #82 ) ) ;
#92 = EDGE_LOOP ( 'NONE', ( #223, #250 ) ) ;
#93 = AXIS2_PLACEMENT_3D ( 'NONE', #58, #109, #79 ) ;
#94 = APPROVAL_PERSON_ORGANIZATION ( #244, #249, #80 ) ;
#95 = ADVANCED_FACE ( 'NONE', ( #219 ), #62, .T. ) ;
#96 = EDGE_CURVE ( 'NONE', #134, #123, #110, .T. ) ;
#97 = CARTESIAN_POINT ( 'NONE',  ( 0.000000000000000000, 0.000000000000000000, 0.000000000000000000 ) ) ;
#98 = AXIS2_PLACEMENT_3D ( 'NONE', #206, #32, #2 ) ;
#99 =( NAMED_UNIT ( * ) PLANE_ANGLE_UNIT ( ) SI_UNIT ( $, .RADIAN. ) );
#100 = DIRECTION ( 'NONE',  ( 1.000000000000000000, 0.000000000000000000, 0.000000000000000000 ) ) ;
#101 = ORIENTED_EDGE ( 'NONE', *, *, #117, .T. ) ;
#102 = DIRECTION ( 'NONE',  ( 1.000000000000000000, 0.000000000000000000, -0.000000000000000000 ) ) ;
#103 = DIRECTION ( 'NONE',  ( 0.000000000000000000, 0.000000000000000000, 1.000000000000000000 ) ) ;
#104 = ORIENTED_EDGE ( 'NONE', *, *, #96, .F. ) ;
#105 = APPLICATION_PROTOCOL_DEFINITION ( 'international standard', 'config_control_design', 1994, #231 ) ;
#106 = CARTESIAN_POINT ( 'NONE',  ( 7.000000000000000000, 8.572527594031473190E-16, 0.000000000000000000 ) ) ;
#107 = PERSON_AND_ORGANIZATION ( #230, #127 ) ;
#108 = DIRECTION ( 'NONE',  ( -0.000000000000000000, -0.000000000000000000, -1.000000000000000000 ) ) ;
#109 = DIRECTION ( 'NONE',  ( 0.000000000000000000, 0.000000000000000000, 1.000000000000000000 ) ) ;
#110 = LINE ( 'NONE', #139, #7 ) ;
#111 = APPROVAL_DATE_TIME ( #124, #125 ) ;
#112 = VERTEX_POINT ( 'NONE', #167 ) ;
#113 = ORIENTED_EDGE ( 'NONE', *, *, #5, .F. ) ;
#114 = AXIS2_PLACEMENT_3D ( 'NONE', #1, #122, #54 ) ;
#115 = LOCAL_TIME ( 12, 8, 34.00000000000000000, #170 ) ;
#116 = ORIENTED_EDGE ( 'NONE', *, *, #61, .T. ) ;
#117 = EDGE_CURVE ( 'NONE', #112, #208, #60, .T. ) ;
#118 = CARTESIAN_POINT ( 'NONE',  ( 0.000000000000000000, 0.000000000000000000, 5.000000000000000000 ) ) ;
#119 = DIRECTION ( 'NONE',  ( -0.000000000000000000, -0.000000000000000000, -1.000000000000000000 ) ) ;
#120 = ORIENTED_EDGE ( 'NONE', *, *, #96, .T. ) ;
#121 = CALENDAR_DATE ( 2023, 12, 2 ) ;
#122 = DIRECTION ( 'NONE',  ( 0.000000000000000000, 0.000000000000000000, 1.000000000000000000 ) ) ;
#123 = VERTEX_POINT ( 'NONE', #137 ) ;
#124 = DATE_AND_TIME ( #59, #115 ) ;
#125 = APPROVAL ( #23, 'NEURÈENÝ' ) ;
#126 = PERSON_AND_ORGANIZATION_ROLE ( 'design_supplier' ) ;
#127 = ORGANIZATION ( 'NEURÈENÝ', 'NEURÈENÝ', '' ) ;
#128 = CC_DESIGN_PERSON_AND_ORGANIZATION_ASSIGNMENT ( #217, #40, ( #163 ) ) ;
#129 = CIRCLE ( 'NONE', #93, 7.000000000000000000 ) ;
#130 = DIRECTION ( 'NONE',  ( -1.000000000000000000, 0.000000000000000000, 0.000000000000000000 ) ) ;
#131 = APPROVAL_ROLE ( '' ) ;
#132 = CARTESIAN_POINT ( 'NONE',  ( 0.000000000000000000, 0.000000000000000000, 5.000000000000000000 ) ) ;
#133 = EDGE_CURVE ( 'NONE', #123, #14, #198, .T. ) ;
#134 = VERTEX_POINT ( 'NONE', #21 ) ;
#135 = DIRECTION ( 'NONE',  ( 0.000000000000000000, 0.000000000000000000, 1.000000000000000000 ) ) ;
#136 = CARTESIAN_POINT ( 'NONE',  ( 0.000000000000000000, 0.000000000000000000, 5.000000000000000000 ) ) ;
#137 = CARTESIAN_POINT ( 'NONE',  ( -4.500000000000000000, 0.000000000000000000, 5.000000000000000000 ) ) ;
#138 = APPROVAL_DATE_TIME ( #161, #22 ) ;
#139 = CARTESIAN_POINT ( 'NONE',  ( -4.500000000000000000, 0.000000000000000000, 250.0000000000000000 ) ) ;
#140 = PLANE ( 'NONE',  #243 ) ;
#141 = DATE_AND_TIME ( #121, #238 ) ;
#142 = AXIS2_PLACEMENT_3D ( 'NONE', #132, #216, #18 ) ;
#143 = CC_DESIGN_PERSON_AND_ORGANIZATION_ASSIGNMENT ( #107, #189, ( #199 ) ) ;
#144 = PLANE ( 'NONE',  #220 ) ;
#145 = PERSON_AND_ORGANIZATION ( #230, #127 ) ;
#146 = ADVANCED_BREP_SHAPE_REPRESENTATION ( 'de39', ( #211, #47 ), #29 ) ;
#147 = DESIGN_CONTEXT ( 'detailed design', #231, 'design' ) ;
#148 = APPROVAL_PERSON_ORGANIZATION ( #205, #125, #90 ) ;
#149 = AXIS2_PLACEMENT_3D ( 'NONE', #136, #157, #254 ) ;
#150 = COORDINATED_UNIVERSAL_TIME_OFFSET ( 1, 0, .AHEAD. ) ;
#151 = ADVANCED_FACE ( 'NONE', ( #89 ), #75, .T. ) ;
#152 = LINE ( 'NONE', #201, #65 ) ;
#153 = ORIENTED_EDGE ( 'NONE', *, *, #212, .T. ) ;
#154 = LOCAL_TIME ( 12, 8, 34.00000000000000000, #64 ) ;
#155 = EDGE_LOOP ( 'NONE', ( #78, #116 ) ) ;
#156 = DIRECTION ( 'NONE',  ( -1.000000000000000000, 0.000000000000000000, 0.000000000000000000 ) ) ;
#157 = DIRECTION ( 'NONE',  ( 0.000000000000000000, 0.000000000000000000, 1.000000000000000000 ) ) ;
#158 = VERTEX_POINT ( 'NONE', #225 ) ;
#159 = AXIS2_PLACEMENT_3D ( 'NONE', #97, #241, #100 ) ;
#160 = ORIENTED_EDGE ( 'NONE', *, *, #182, .F. ) ;
#161 = DATE_AND_TIME ( #210, #87 ) ;
#162 = DIRECTION ( 'NONE',  ( 0.000000000000000000, 0.000000000000000000, 1.000000000000000000 ) ) ;
#163 = PRODUCT_DEFINITION_FORMATION_WITH_SPECIFIED_SOURCE ( 'LIBOVOLNÝ', '', #197, .NOT_KNOWN. ) ;
#164 = CARTESIAN_POINT ( 'NONE',  ( 7.000000000000000000, 8.572527594031473190E-16, 5.000000000000000000 ) ) ;
#165 = EDGE_LOOP ( 'NONE', ( #73, #255, #120, #192 ) ) ;
#166 = COORDINATED_UNIVERSAL_TIME_OFFSET ( 1, 0, .AHEAD. ) ;
#167 = CARTESIAN_POINT ( 'NONE',  ( -7.000000000000000000, 0.000000000000000000, 0.000000000000000000 ) ) ;
#168 = APPLICATION_PROTOCOL_DEFINITION ( 'international standard', 'config_control_design', 1994, #28 ) ;
#169 = ADVANCED_FACE ( 'NONE', ( #240 ), #245, .F. ) ;
#170 = COORDINATED_UNIVERSAL_TIME_OFFSET ( 1, 0, .AHEAD. ) ;
#171 = CIRCLE ( 'NONE', #98, 4.500000000000000000 ) ;
#172 = ADVANCED_FACE ( 'NONE', ( #200 ), #48, .T. ) ;
#173 = PERSON_AND_ORGANIZATION ( #230, #127 ) ;
#174 = LOCAL_TIME ( 12, 8, 34.00000000000000000, #166 ) ;
#175 = CC_DESIGN_PERSON_AND_ORGANIZATION_ASSIGNMENT ( #81, #239, ( #197 ) ) ;
#176 = AXIS2_PLACEMENT_3D ( 'NONE', #203, #83, #130 ) ;
#177 = DIRECTION ( 'NONE',  ( 0.000000000000000000, 0.000000000000000000, 1.000000000000000000 ) ) ;
#178 = ORIENTED_EDGE ( 'NONE', *, *, #212, .F. ) ;
#179 = LINE ( 'NONE', #70, #214 ) ;
#180 = VERTEX_POINT ( 'NONE', #202 ) ;
#181 = CYLINDRICAL_SURFACE ( 'NONE', #44, 4.500000000000000000 ) ;
#182 = EDGE_CURVE ( 'NONE', #68, #208, #30, .T. ) ;
#183 = ORIENTED_EDGE ( 'NONE', *, *, #182, .T. ) ;
#184 = DIRECTION ( 'NONE',  ( -0.000000000000000000, -0.000000000000000000, -1.000000000000000000 ) ) ;
#185 = CIRCLE ( 'NONE', #237, 4.500000000000000000 ) ;
#186 = DIRECTION ( 'NONE',  ( 1.000000000000000000, 0.000000000000000000, 0.000000000000000000 ) ) ;
#187 = FACE_OUTER_BOUND ( 'NONE', #165, .T. ) ;
#188 = EDGE_LOOP ( 'NONE', ( #160, #113, #26, #101 ) ) ;
#189 = PERSON_AND_ORGANIZATION_ROLE ( 'classification_officer' ) ;
#190 = EDGE_CURVE ( 'NONE', #134, #180, #171, .T. ) ;
#191 =( LENGTH_UNIT ( ) NAMED_UNIT ( * ) SI_UNIT ( .MILLI., .METRE. ) );
#192 = ORIENTED_EDGE ( 'NONE', *, *, #133, .T. ) ;
#193 = DIRECTION ( 'NONE',  ( -0.000000000000000000, -0.000000000000000000, -1.000000000000000000 ) ) ;
#194 = CLOSED_SHELL ( 'NONE', ( #151, #95, #172, #57, #169, #242, #236 ) ) ;
#195 = DATE_AND_TIME ( #43, #154 ) ;
#196 = APPROVAL_DATE_TIME ( #141, #249 ) ;
#197 = PRODUCT ( 'de39', 'de39', '', ( #16 ) ) ;
#198 = CIRCLE ( 'NONE', #37, 4.500000000000000000 ) ;
#199 = SECURITY_CLASSIFICATION ( '', '', #224 ) ;
#200 = FACE_OUTER_BOUND ( 'NONE', #188, .T. ) ;
#201 = CARTESIAN_POINT ( 'NONE',  ( -7.000000000000000000, 0.000000000000000000, 5.000000000000000000 ) ) ;
#202 = CARTESIAN_POINT ( 'NONE',  ( 4.500000000000000000, 5.510910596163088569E-16, 250.0000000000000000 ) ) ;
#203 = CARTESIAN_POINT ( 'NONE',  ( 0.000000000000000000, 0.000000000000000000, 5.000000000000000000 ) ) ;
#204 = DIRECTION ( 'NONE',  ( 0.000000000000000000, 0.000000000000000000, 1.000000000000000000 ) ) ;
#205 = PERSON_AND_ORGANIZATION ( #230, #127 ) ;
#206 = CARTESIAN_POINT ( 'NONE',  ( 0.000000000000000000, 0.000000000000000000, 250.0000000000000000 ) ) ;
#207 = FACE_OUTER_BOUND ( 'NONE', #6, .T. ) ;
#208 = VERTEX_POINT ( 'NONE', #106 ) ;
#209 =( NAMED_UNIT ( * ) SI_UNIT ( $, .STERADIAN. ) SOLID_ANGLE_UNIT ( ) );
#210 = CALENDAR_DATE ( 2023, 12, 2 ) ;
#211 = MANIFOLD_SOLID_BREP ( 'Pøidat vysunutím3', #194 ) ;
#212 = EDGE_CURVE ( 'NONE', #14, #123, #51, .T. ) ;
#213 = EDGE_LOOP ( 'NONE', ( #233, #218, #153, #104 ) ) ;
#214 = VECTOR ( 'NONE', #119, 1000.000000000000000 ) ;
#215 = FACE_OUTER_BOUND ( 'NONE', #155, .T. ) ;
#216 = DIRECTION ( 'NONE',  ( -0.000000000000000000, -0.000000000000000000, -1.000000000000000000 ) ) ;
#217 = PERSON_AND_ORGANIZATION ( #230, #127 ) ;
#218 = ORIENTED_EDGE ( 'NONE', *, *, #227, .T. ) ;
#219 = FACE_OUTER_BOUND ( 'NONE', #38, .T. ) ;
#220 = AXIS2_PLACEMENT_3D ( 'NONE', #13, #177, #34 ) ;
#221 = PERSON_AND_ORGANIZATION_ROLE ( 'creator' ) ;
#222 = DATE_TIME_ROLE ( 'creation_date' ) ;
#223 = ORIENTED_EDGE ( 'NONE', *, *, #117, .F. ) ;
#224 = SECURITY_CLASSIFICATION_LEVEL ( 'unclassified' ) ;
#225 = CARTESIAN_POINT ( 'NONE',  ( -7.000000000000000000, 0.000000000000000000, 5.000000000000000000 ) ) ;
#226 = AXIS2_PLACEMENT_3D ( 'NONE', #42, #193, #156 ) ;
#227 = EDGE_CURVE ( 'NONE', #180, #14, #179, .T. ) ;
#228 = CIRCLE ( 'NONE', #149, 7.000000000000000000 ) ;
#229 = CC_DESIGN_SECURITY_CLASSIFICATION ( #199, ( #163 ) ) ;
#230 = PERSON ( 'NEURÈENÝ', 'NEURÈENÝ', 'NEURÈENÝ', ('NEURÈENÝ'), ('NEURÈENÝ'), ('NEURÈENÝ') ) ;
#231 = APPLICATION_CONTEXT ( 'configuration controlled 3d designs of mechanical parts and assemblies' ) ;
#232 = CARTESIAN_POINT ( 'NONE',  ( 4.500000000000000000, 5.510910596163088569E-16, 5.000000000000000000 ) ) ;
#233 = ORIENTED_EDGE ( 'NONE', *, *, #61, .F. ) ;
#234 = CARTESIAN_POINT ( 'NONE',  ( 0.000000000000000000, 0.000000000000000000, 250.0000000000000000 ) ) ;
#235 = FACE_BOUND ( 'NONE', #251, .T. ) ;
#236 = ADVANCED_FACE ( 'NONE', ( #215 ), #140, .T. ) ;
#237 = AXIS2_PLACEMENT_3D ( 'NONE', #50, #103, #25 ) ;
#238 = LOCAL_TIME ( 12, 8, 34.00000000000000000, #45 ) ;
#239 = PERSON_AND_ORGANIZATION_ROLE ( 'design_owner' ) ;
#240 = FACE_OUTER_BOUND ( 'NONE', #92, .T. ) ;
#241 = DIRECTION ( 'NONE',  ( 0.000000000000000000, 0.000000000000000000, 1.000000000000000000 ) ) ;
#242 = ADVANCED_FACE ( 'NONE', ( #187 ), #181, .T. ) ;
#243 = AXIS2_PLACEMENT_3D ( 'NONE', #234, #39, #102 ) ;
#244 = PERSON_AND_ORGANIZATION ( #230, #127 ) ;
#245 = PLANE ( 'NONE',  #20 ) ;
#246 = AXIS2_PLACEMENT_3D ( 'NONE', #118, #135, #85 ) ;
#247 = APPROVAL_STATUS ( 'not_yet_approved' ) ;
#248 = CC_DESIGN_APPROVAL ( #249, ( #163 ) ) ;
#249 = APPROVAL ( #24, 'NEURÈENÝ' ) ;
#250 = ORIENTED_EDGE ( 'NONE', *, *, #41, .F. ) ;
#251 = EDGE_LOOP ( 'NONE', ( #71, #178 ) ) ;
#252 = DIRECTION ( 'NONE',  ( -1.000000000000000000, 0.000000000000000000, 0.000000000000000000 ) ) ;
#253 = DIRECTION ( 'NONE',  ( -0.000000000000000000, -0.000000000000000000, -1.000000000000000000 ) ) ;
#254 = DIRECTION ( 'NONE',  ( 1.000000000000000000, 0.000000000000000000, 0.000000000000000000 ) ) ;
#255 = ORIENTED_EDGE ( 'NONE', *, *, #190, .F. ) ;
ENDSEC;
END-ISO-10303-21;
