ISO-10303-21;
HEADER;
FILE_DESCRIPTION (( 'STEP AP203' ),
    '1' );
FILE_NAME ('4419.STEP',
    '2023-02-12T10:35:35',
    ( '' ),
    ( '' ),
    'SwSTEP 2.0',
    'SolidWorks 2019',
    '' );
FILE_SCHEMA (( 'CONFIG_CONTROL_DESIGN' ));
ENDSEC;

DATA;
#1 = PERSON_AND_ORGANIZATION_ROLE ( 'classification_officer' ) ;
#2 = CYLINDRICAL_SURFACE ( 'NONE', #135, 10.00000000000000178 ) ;
#3 = FACE_OUTER_BOUND ( 'NONE', #45, .T. ) ;
#4 = EDGE_CURVE ( 'NONE', #115, #185, #141, .T. ) ;
#5 = DIRECTION ( 'NONE',  ( 1.000000000000000000, 0.000000000000000000, -0.000000000000000000 ) ) ;
#6 = APPROVAL_STATUS ( 'not_yet_approved' ) ;
#7 = PLANE ( 'NONE',  #154 ) ;
#8 = CARTESIAN_POINT ( 'NONE',  ( -10.00000000000000178, 0.000000000000000000, 400.0000000000000000 ) ) ;
#9 = CALENDAR_DATE ( 2023, 12, 2 ) ;
#10 = ORIENTED_EDGE ( 'NONE', *, *, #103, .T. ) ;
#11 = ORIENTED_EDGE ( 'NONE', *, *, #68, .F. ) ;
#12 = ADVANCED_FACE ( 'NONE', ( #38 ), #2, .T. ) ;
#13 = CC_DESIGN_APPROVAL ( #33, ( #231 ) ) ;
#14 = EDGE_LOOP ( 'NONE', ( #85, #11 ) ) ;
#15 = ORIENTED_EDGE ( 'NONE', *, *, #237, .F. ) ;
#16 = CARTESIAN_POINT ( 'NONE',  ( 0.000000000000000000, 0.000000000000000000, 0.000000000000000000 ) ) ;
#17 = CARTESIAN_POINT ( 'NONE',  ( 0.000000000000000000, 0.000000000000000000, 8.000000000000000000 ) ) ;
#18 = AXIS2_PLACEMENT_3D ( 'NONE', #61, #222, #24 ) ;
#19 = DIRECTION ( 'NONE',  ( 1.000000000000000000, 0.000000000000000000, 0.000000000000000000 ) ) ;
#20 = CC_DESIGN_DATE_AND_TIME_ASSIGNMENT ( #137, #212, ( #211 ) ) ;
#21 = FACE_OUTER_BOUND ( 'NONE', #157, .T. ) ;
#22 = APPROVAL_DATE_TIME ( #195, #130 ) ;
#23 = PERSON_AND_ORGANIZATION ( #92, #37 ) ;
#24 = DIRECTION ( 'NONE',  ( 1.000000000000000000, 0.000000000000000000, 0.000000000000000000 ) ) ;
#25 = PRODUCT_DEFINITION_SHAPE ( 'NONE', 'NONE',  #211 ) ;
#26 = DIRECTION ( 'NONE',  ( 1.000000000000000000, 0.000000000000000000, 0.000000000000000000 ) ) ;
#27 = APPROVAL_DATE_TIME ( #227, #33 ) ;
#28 = ORIENTED_EDGE ( 'NONE', *, *, #63, .T. ) ;
#29 = CIRCLE ( 'NONE', #148, 10.00000000000000178 ) ;
#30 = AXIS2_PLACEMENT_3D ( 'NONE', #250, #99, #74 ) ;
#31 = CIRCLE ( 'NONE', #218, 13.00000000000000178 ) ;
#32 = ORIENTED_EDGE ( 'NONE', *, *, #144, .T. ) ;
#33 = APPROVAL ( #213, 'NEURÈENÝ' ) ;
#34 = DIRECTION ( 'NONE',  ( 1.000000000000000000, 0.000000000000000000, 0.000000000000000000 ) ) ;
#35 = FACE_BOUND ( 'NONE', #14, .T. ) ;
#36 = DIRECTION ( 'NONE',  ( 0.000000000000000000, 0.000000000000000000, 1.000000000000000000 ) ) ;
#37 = ORGANIZATION ( 'NEURÈENÝ', 'NEURÈENÝ', '' ) ;
#38 = FACE_OUTER_BOUND ( 'NONE', #156, .T. ) ;
#39 = CC_DESIGN_PERSON_AND_ORGANIZATION_ASSIGNMENT ( #23, #110, ( #223 ) ) ;
#40 = LINE ( 'NONE', #216, #208 ) ;
#41 = CALENDAR_DATE ( 2023, 12, 2 ) ;
#42 = DIRECTION ( 'NONE',  ( -0.000000000000000000, -0.000000000000000000, -1.000000000000000000 ) ) ;
#43 =( LENGTH_UNIT ( ) NAMED_UNIT ( * ) SI_UNIT ( .MILLI., .METRE. ) );
#44 = APPROVAL_DATE_TIME ( #245, #158 ) ;
#45 = EDGE_LOOP ( 'NONE', ( #206, #186, #189, #114 ) ) ;
#46 = ORIENTED_EDGE ( 'NONE', *, *, #4, .F. ) ;
#47 = AXIS2_PLACEMENT_3D ( 'NONE', #79, #166, #26 ) ;
#48 = CARTESIAN_POINT ( 'NONE',  ( 0.000000000000000000, 0.000000000000000000, 400.0000000000000000 ) ) ;
#49 =( GEOMETRIC_REPRESENTATION_CONTEXT ( 3 ) GLOBAL_UNCERTAINTY_ASSIGNED_CONTEXT ( ( #252 ) ) GLOBAL_UNIT_ASSIGNED_CONTEXT ( ( #43, #180, #146 ) ) REPRESENTATION_CONTEXT ( 'NONE', 'WORKASPACE' ) );
#50 = PERSON_AND_ORGANIZATION_ROLE ( 'design_supplier' ) ;
#51 = CARTESIAN_POINT ( 'NONE',  ( 10.00000000000000178, 1.224646799147353454E-15, 400.0000000000000000 ) ) ;
#52 = VERTEX_POINT ( 'NONE', #162 ) ;
#53 = CC_DESIGN_PERSON_AND_ORGANIZATION_ASSIGNMENT ( #160, #1, ( #161 ) ) ;
#54 = CARTESIAN_POINT ( 'NONE',  ( 0.000000000000000000, 0.000000000000000000, 400.0000000000000000 ) ) ;
#55 = AXIS2_PLACEMENT_3D ( 'NONE', #48, #140, #56 ) ;
#56 = DIRECTION ( 'NONE',  ( 1.000000000000000000, 0.000000000000000000, 0.000000000000000000 ) ) ;
#57 = ADVANCED_FACE ( 'NONE', ( #21 ), #69, .T. ) ;
#58 = DATE_AND_TIME ( #41, #243 ) ;
#59 = LINE ( 'NONE', #82, #204 ) ;
#60 = APPROVAL_ROLE ( '' ) ;
#61 = CARTESIAN_POINT ( 'NONE',  ( 0.000000000000000000, 0.000000000000000000, 8.000000000000000000 ) ) ;
#62 = PERSON_AND_ORGANIZATION ( #92, #37 ) ;
#63 = EDGE_CURVE ( 'NONE', #115, #207, #145, .T. ) ;
#64 = VERTEX_POINT ( 'NONE', #217 ) ;
#65 = ORIENTED_EDGE ( 'NONE', *, *, #155, .F. ) ;
#66 = AXIS2_PLACEMENT_3D ( 'NONE', #120, #142, #220 ) ;
#67 = PERSON_AND_ORGANIZATION ( #92, #37 ) ;
#68 = EDGE_CURVE ( 'NONE', #185, #226, #29, .T. ) ;
#69 = CYLINDRICAL_SURFACE ( 'NONE', #229, 10.00000000000000178 ) ;
#70 = PERSON_AND_ORGANIZATION ( #92, #37 ) ;
#71 = CARTESIAN_POINT ( 'NONE',  ( 10.00000000000000178, 1.224646799147353454E-15, 8.000000000000000000 ) ) ;
#72 = CIRCLE ( 'NONE', #18, 13.00000000000000178 ) ;
#73 = DIRECTION ( 'NONE',  ( -1.000000000000000000, 0.000000000000000000, 0.000000000000000000 ) ) ;
#74 = DIRECTION ( 'NONE',  ( 1.000000000000000000, 0.000000000000000000, 0.000000000000000000 ) ) ;
#75 = LINE ( 'NONE', #123, #219 ) ;
#76 = AXIS2_PLACEMENT_3D ( 'NONE', #200, #224, #5 ) ;
#77 = COORDINATED_UNIVERSAL_TIME_OFFSET ( 1, 0, .AHEAD. ) ;
#78 = DIRECTION ( 'NONE',  ( -0.000000000000000000, -0.000000000000000000, -1.000000000000000000 ) ) ;
#79 = CARTESIAN_POINT ( 'NONE',  ( 0.000000000000000000, 0.000000000000000000, 8.000000000000000000 ) ) ;
#80 = CALENDAR_DATE ( 2023, 12, 2 ) ;
#81 = AXIS2_PLACEMENT_3D ( 'NONE', #124, #242, #131 ) ;
#82 = CARTESIAN_POINT ( 'NONE',  ( 13.00000000000000178, 1.592040838891559293E-15, 8.000000000000000000 ) ) ;
#83 = MECHANICAL_CONTEXT ( 'NONE', #184, 'mechanical' ) ;
#84 = MANIFOLD_SOLID_BREP ( 'Pøidat vysunutím3', #251 ) ;
#85 = ORIENTED_EDGE ( 'NONE', *, *, #192, .F. ) ;
#86 = APPROVAL_ROLE ( '' ) ;
#87 = EDGE_LOOP ( 'NONE', ( #233, #89 ) ) ;
#88 = PERSON_AND_ORGANIZATION ( #92, #37 ) ;
#89 = ORIENTED_EDGE ( 'NONE', *, *, #151, .F. ) ;
#90 = EDGE_LOOP ( 'NONE', ( #15, #246, #234, #10 ) ) ;
#91 = CALENDAR_DATE ( 2023, 12, 2 ) ;
#92 = PERSON ( 'NEURÈENÝ', 'NEURÈENÝ', 'NEURÈENÝ', ('NEURÈENÝ'), ('NEURÈENÝ'), ('NEURÈENÝ') ) ;
#93 = APPROVAL_PERSON_ORGANIZATION ( #225, #158, #112 ) ;
#94 = CC_DESIGN_PERSON_AND_ORGANIZATION_ASSIGNMENT ( #62, #205, ( #211 ) ) ;
#95 = COORDINATED_UNIVERSAL_TIME_OFFSET ( 1, 0, .AHEAD. ) ;
#96 = PERSON_AND_ORGANIZATION_ROLE ( 'creator' ) ;
#97 = DIRECTION ( 'NONE',  ( 0.000000000000000000, 0.000000000000000000, 1.000000000000000000 ) ) ;
#98 = CIRCLE ( 'NONE', #66, 13.00000000000000178 ) ;
#99 = DIRECTION ( 'NONE',  ( 0.000000000000000000, 0.000000000000000000, 1.000000000000000000 ) ) ;
#100 = AXIS2_PLACEMENT_3D ( 'NONE', #16, #97, #19 ) ;
#101 = SECURITY_CLASSIFICATION_LEVEL ( 'unclassified' ) ;
#102 = DIRECTION ( 'NONE',  ( 1.000000000000000000, 0.000000000000000000, -0.000000000000000000 ) ) ;
#103 = EDGE_CURVE ( 'NONE', #174, #64, #98, .T. ) ;
#104 = EDGE_LOOP ( 'NONE', ( #134, #133 ) ) ;
#105 = CARTESIAN_POINT ( 'NONE',  ( 0.000000000000000000, 0.000000000000000000, 400.0000000000000000 ) ) ;
#106 = AXIS2_PLACEMENT_3D ( 'NONE', #178, #42, #109 ) ;
#107 = EDGE_CURVE ( 'NONE', #169, #52, #31, .T. ) ;
#108 = DIRECTION ( 'NONE',  ( 0.000000000000000000, 0.000000000000000000, 1.000000000000000000 ) ) ;
#109 = DIRECTION ( 'NONE',  ( -1.000000000000000000, 0.000000000000000000, 0.000000000000000000 ) ) ;
#110 = PERSON_AND_ORGANIZATION_ROLE ( 'design_owner' ) ;
#111 = AXIS2_PLACEMENT_3D ( 'NONE', #54, #122, #102 ) ;
#112 = APPROVAL_ROLE ( '' ) ;
#113 = COORDINATED_UNIVERSAL_TIME_OFFSET ( 1, 0, .AHEAD. ) ;
#114 = ORIENTED_EDGE ( 'NONE', *, *, #171, .F. ) ;
#115 = VERTEX_POINT ( 'NONE', #117 ) ;
#116 = ORIENTED_EDGE ( 'NONE', *, *, #68, .T. ) ;
#117 = CARTESIAN_POINT ( 'NONE',  ( 10.00000000000000178, 1.224646799147353454E-15, 400.0000000000000000 ) ) ;
#118 = FACE_OUTER_BOUND ( 'NONE', #104, .T. ) ;
#119 = ADVANCED_FACE ( 'NONE', ( #194 ), #143, .T. ) ;
#120 = CARTESIAN_POINT ( 'NONE',  ( 0.000000000000000000, 0.000000000000000000, 0.000000000000000000 ) ) ;
#121 = APPROVAL_PERSON_ORGANIZATION ( #67, #33, #86 ) ;
#122 = DIRECTION ( 'NONE',  ( 0.000000000000000000, 0.000000000000000000, 1.000000000000000000 ) ) ;
#123 = CARTESIAN_POINT ( 'NONE',  ( -13.00000000000000178, 0.000000000000000000, 8.000000000000000000 ) ) ;
#124 = CARTESIAN_POINT ( 'NONE',  ( 0.000000000000000000, 0.000000000000000000, 0.000000000000000000 ) ) ;
#125 = LOCAL_TIME ( 11, 35, 35.00000000000000000, #77 ) ;
#126 = APPLICATION_PROTOCOL_DEFINITION ( 'international standard', 'config_control_design', 1994, #184 ) ;
#127 = ADVANCED_BREP_SHAPE_REPRESENTATION ( '4419', ( #84, #81 ), #49 ) ;
#128 = COORDINATED_UNIVERSAL_TIME_OFFSET ( 1, 0, .AHEAD. ) ;
#129 = FACE_OUTER_BOUND ( 'NONE', #87, .T. ) ;
#130 = APPROVAL ( #6, 'NEURÈENÝ' ) ;
#131 = DIRECTION ( 'NONE',  ( 1.000000000000000000, 0.000000000000000000, 0.000000000000000000 ) ) ;
#132 = FACE_OUTER_BOUND ( 'NONE', #90, .T. ) ;
#133 = ORIENTED_EDGE ( 'NONE', *, *, #198, .T. ) ;
#134 = ORIENTED_EDGE ( 'NONE', *, *, #107, .T. ) ;
#135 = AXIS2_PLACEMENT_3D ( 'NONE', #240, #165, #73 ) ;
#136 = CC_DESIGN_SECURITY_CLASSIFICATION ( #161, ( #231 ) ) ;
#137 = DATE_AND_TIME ( #91, #125 ) ;
#138 = ADVANCED_FACE ( 'NONE', ( #3 ), #188, .T. ) ;
#139 = DIRECTION ( 'NONE',  ( 0.000000000000000000, 0.000000000000000000, 1.000000000000000000 ) ) ;
#140 = DIRECTION ( 'NONE',  ( 0.000000000000000000, 0.000000000000000000, 1.000000000000000000 ) ) ;
#141 = LINE ( 'NONE', #51, #230 ) ;
#142 = DIRECTION ( 'NONE',  ( 0.000000000000000000, 0.000000000000000000, 1.000000000000000000 ) ) ;
#143 = PLANE ( 'NONE',  #111 ) ;
#144 = EDGE_CURVE ( 'NONE', #207, #226, #40, .T. ) ;
#145 = CIRCLE ( 'NONE', #55, 10.00000000000000178 ) ;
#146 =( NAMED_UNIT ( * ) SI_UNIT ( $, .STERADIAN. ) SOLID_ANGLE_UNIT ( ) );
#147 = CIRCLE ( 'NONE', #30, 10.00000000000000178 ) ;
#148 = AXIS2_PLACEMENT_3D ( 'NONE', #17, #139, #191 ) ;
#149 = CC_DESIGN_APPROVAL ( #130, ( #161 ) ) ;
#150 = SHAPE_DEFINITION_REPRESENTATION ( #25, #127 ) ;
#151 = EDGE_CURVE ( 'NONE', #64, #174, #201, .T. ) ;
#152 = APPROVAL_STATUS ( 'not_yet_approved' ) ;
#153 = ORIENTED_EDGE ( 'NONE', *, *, #4, .T. ) ;
#154 = AXIS2_PLACEMENT_3D ( 'NONE', #202, #108, #199 ) ;
#155 = EDGE_CURVE ( 'NONE', #207, #115, #147, .T. ) ;
#156 = EDGE_LOOP ( 'NONE', ( #235, #153, #116, #228 ) ) ;
#157 = EDGE_LOOP ( 'NONE', ( #46, #65, #32, #163 ) ) ;
#158 = APPROVAL ( #152, 'NEURÈENÝ' ) ;
#159 = DIRECTION ( 'NONE',  ( -1.000000000000000000, 0.000000000000000000, 0.000000000000000000 ) ) ;
#160 = PERSON_AND_ORGANIZATION ( #92, #37 ) ;
#161 = SECURITY_CLASSIFICATION ( '', '', #101 ) ;
#162 = CARTESIAN_POINT ( 'NONE',  ( 13.00000000000000178, 1.592040838891559293E-15, 8.000000000000000000 ) ) ;
#163 = ORIENTED_EDGE ( 'NONE', *, *, #192, .T. ) ;
#164 = CARTESIAN_POINT ( 'NONE',  ( -13.00000000000000178, 0.000000000000000000, 8.000000000000000000 ) ) ;
#165 = DIRECTION ( 'NONE',  ( -0.000000000000000000, -0.000000000000000000, -1.000000000000000000 ) ) ;
#166 = DIRECTION ( 'NONE',  ( 0.000000000000000000, 0.000000000000000000, 1.000000000000000000 ) ) ;
#167 = CC_DESIGN_PERSON_AND_ORGANIZATION_ASSIGNMENT ( #88, #96, ( #231 ) ) ;
#168 = PERSON_AND_ORGANIZATION ( #92, #37 ) ;
#169 = VERTEX_POINT ( 'NONE', #164 ) ;
#170 = EDGE_LOOP ( 'NONE', ( #210, #28 ) ) ;
#171 = EDGE_CURVE ( 'NONE', #169, #174, #75, .T. ) ;
#172 = DIRECTION ( 'NONE',  ( -0.000000000000000000, -0.000000000000000000, -1.000000000000000000 ) ) ;
#173 = AXIS2_PLACEMENT_3D ( 'NONE', #221, #176, #175 ) ;
#174 = VERTEX_POINT ( 'NONE', #238 ) ;
#175 = DIRECTION ( 'NONE',  ( -1.000000000000000000, 0.000000000000000000, 0.000000000000000000 ) ) ;
#176 = DIRECTION ( 'NONE',  ( -0.000000000000000000, -0.000000000000000000, -1.000000000000000000 ) ) ;
#177 = APPROVAL_PERSON_ORGANIZATION ( #168, #130, #60 ) ;
#178 = CARTESIAN_POINT ( 'NONE',  ( 0.000000000000000000, 0.000000000000000000, 8.000000000000000000 ) ) ;
#179 = DATE_TIME_ROLE ( 'classification_date' ) ;
#180 =( NAMED_UNIT ( * ) PLANE_ANGLE_UNIT ( ) SI_UNIT ( $, .RADIAN. ) );
#181 = APPLICATION_PROTOCOL_DEFINITION ( 'international standard', 'config_control_design', 1994, #196 ) ;
#182 = COORDINATED_UNIVERSAL_TIME_OFFSET ( 1, 0, .AHEAD. ) ;
#183 = CALENDAR_DATE ( 2023, 12, 2 ) ;
#184 = APPLICATION_CONTEXT ( 'configuration controlled 3d designs of mechanical parts and assemblies' ) ;
#185 = VERTEX_POINT ( 'NONE', #71 ) ;
#186 = ORIENTED_EDGE ( 'NONE', *, *, #237, .T. ) ;
#187 = ADVANCED_FACE ( 'NONE', ( #35, #118 ), #7, .T. ) ;
#188 = CYLINDRICAL_SURFACE ( 'NONE', #173, 13.00000000000000178 ) ;
#189 = ORIENTED_EDGE ( 'NONE', *, *, #151, .T. ) ;
#190 = CIRCLE ( 'NONE', #47, 10.00000000000000178 ) ;
#191 = DIRECTION ( 'NONE',  ( 1.000000000000000000, 0.000000000000000000, 0.000000000000000000 ) ) ;
#192 = EDGE_CURVE ( 'NONE', #226, #185, #190, .T. ) ;
#193 = DIRECTION ( 'NONE',  ( -0.000000000000000000, -0.000000000000000000, -1.000000000000000000 ) ) ;
#194 = FACE_OUTER_BOUND ( 'NONE', #170, .T. ) ;
#195 = DATE_AND_TIME ( #80, #214 ) ;
#196 = APPLICATION_CONTEXT ( 'configuration controlled 3d designs of mechanical parts and assemblies' ) ;
#197 = CARTESIAN_POINT ( 'NONE',  ( -10.00000000000000178, 0.000000000000000000, 8.000000000000000000 ) ) ;
#198 = EDGE_CURVE ( 'NONE', #52, #169, #72, .T. ) ;
#199 = DIRECTION ( 'NONE',  ( 1.000000000000000000, 0.000000000000000000, -0.000000000000000000 ) ) ;
#200 = CARTESIAN_POINT ( 'NONE',  ( 0.000000000000000000, 0.000000000000000000, 0.000000000000000000 ) ) ;
#201 = CIRCLE ( 'NONE', #100, 13.00000000000000178 ) ;
#202 = CARTESIAN_POINT ( 'NONE',  ( 0.000000000000000000, 0.000000000000000000, 8.000000000000000000 ) ) ;
#203 = CC_DESIGN_DATE_AND_TIME_ASSIGNMENT ( #58, #179, ( #161 ) ) ;
#204 = VECTOR ( 'NONE', #78, 1000.000000000000000 ) ;
#205 = PERSON_AND_ORGANIZATION_ROLE ( 'creator' ) ;
#206 = ORIENTED_EDGE ( 'NONE', *, *, #198, .F. ) ;
#207 = VERTEX_POINT ( 'NONE', #8 ) ;
#208 = VECTOR ( 'NONE', #193, 1000.000000000000000 ) ;
#209 = LOCAL_TIME ( 11, 35, 35.00000000000000000, #182 ) ;
#210 = ORIENTED_EDGE ( 'NONE', *, *, #155, .T. ) ;
#211 = PRODUCT_DEFINITION ( 'NEZNÁMÝ', '', #231, #236 ) ;
#212 = DATE_TIME_ROLE ( 'creation_date' ) ;
#213 = APPROVAL_STATUS ( 'not_yet_approved' ) ;
#214 = LOCAL_TIME ( 11, 35, 35.00000000000000000, #128 ) ;
#215 = CARTESIAN_POINT ( 'NONE',  ( 0.000000000000000000, 0.000000000000000000, 8.000000000000000000 ) ) ;
#216 = CARTESIAN_POINT ( 'NONE',  ( -10.00000000000000178, 0.000000000000000000, 400.0000000000000000 ) ) ;
#217 = CARTESIAN_POINT ( 'NONE',  ( 13.00000000000000178, 1.592040838891559293E-15, 0.000000000000000000 ) ) ;
#218 = AXIS2_PLACEMENT_3D ( 'NONE', #215, #36, #34 ) ;
#219 = VECTOR ( 'NONE', #172, 1000.000000000000000 ) ;
#220 = DIRECTION ( 'NONE',  ( 1.000000000000000000, 0.000000000000000000, 0.000000000000000000 ) ) ;
#221 = CARTESIAN_POINT ( 'NONE',  ( 0.000000000000000000, 0.000000000000000000, 8.000000000000000000 ) ) ;
#222 = DIRECTION ( 'NONE',  ( 0.000000000000000000, 0.000000000000000000, 1.000000000000000000 ) ) ;
#223 = PRODUCT ( '4419', '4419', '', ( #83 ) ) ;
#224 = DIRECTION ( 'NONE',  ( 0.000000000000000000, 0.000000000000000000, 1.000000000000000000 ) ) ;
#225 = PERSON_AND_ORGANIZATION ( #92, #37 ) ;
#226 = VERTEX_POINT ( 'NONE', #197 ) ;
#227 = DATE_AND_TIME ( #183, #239 ) ;
#228 = ORIENTED_EDGE ( 'NONE', *, *, #144, .F. ) ;
#229 = AXIS2_PLACEMENT_3D ( 'NONE', #105, #249, #159 ) ;
#230 = VECTOR ( 'NONE', #254, 1000.000000000000000 ) ;
#231 = PRODUCT_DEFINITION_FORMATION_WITH_SPECIFIED_SOURCE ( 'LIBOVOLNÝ', '', #223, .NOT_KNOWN. ) ;
#232 = PRODUCT_RELATED_PRODUCT_CATEGORY ( 'detail', '', ( #223 ) ) ;
#233 = ORIENTED_EDGE ( 'NONE', *, *, #103, .F. ) ;
#234 = ORIENTED_EDGE ( 'NONE', *, *, #171, .T. ) ;
#235 = ORIENTED_EDGE ( 'NONE', *, *, #63, .F. ) ;
#236 = DESIGN_CONTEXT ( 'detailed design', #196, 'design' ) ;
#237 = EDGE_CURVE ( 'NONE', #52, #64, #59, .T. ) ;
#238 = CARTESIAN_POINT ( 'NONE',  ( -13.00000000000000178, 0.000000000000000000, 0.000000000000000000 ) ) ;
#239 = LOCAL_TIME ( 11, 35, 35.00000000000000000, #113 ) ;
#240 = CARTESIAN_POINT ( 'NONE',  ( 0.000000000000000000, 0.000000000000000000, 400.0000000000000000 ) ) ;
#241 = PLANE ( 'NONE',  #76 ) ;
#242 = DIRECTION ( 'NONE',  ( 0.000000000000000000, 0.000000000000000000, 1.000000000000000000 ) ) ;
#243 = LOCAL_TIME ( 11, 35, 35.00000000000000000, #95 ) ;
#244 = CYLINDRICAL_SURFACE ( 'NONE', #106, 13.00000000000000178 ) ;
#245 = DATE_AND_TIME ( #9, #209 ) ;
#246 = ORIENTED_EDGE ( 'NONE', *, *, #107, .F. ) ;
#247 = ADVANCED_FACE ( 'NONE', ( #132 ), #244, .T. ) ;
#248 = CC_DESIGN_PERSON_AND_ORGANIZATION_ASSIGNMENT ( #70, #50, ( #231 ) ) ;
#249 = DIRECTION ( 'NONE',  ( -0.000000000000000000, -0.000000000000000000, -1.000000000000000000 ) ) ;
#250 = CARTESIAN_POINT ( 'NONE',  ( 0.000000000000000000, 0.000000000000000000, 400.0000000000000000 ) ) ;
#251 = CLOSED_SHELL ( 'NONE', ( #12, #138, #247, #187, #255, #57, #119 ) ) ;
#252 = UNCERTAINTY_MEASURE_WITH_UNIT (LENGTH_MEASURE( 1.000000000000000082E-05 ), #43, 'distance_accuracy_value', 'NONE');
#253 = CC_DESIGN_APPROVAL ( #158, ( #211 ) ) ;
#254 = DIRECTION ( 'NONE',  ( -0.000000000000000000, -0.000000000000000000, -1.000000000000000000 ) ) ;
#255 = ADVANCED_FACE ( 'NONE', ( #129 ), #241, .F. ) ;
ENDSEC;
END-ISO-10303-21;
