ISO-10303-21;
HEADER;
FILE_DESCRIPTION (( 'STEP AP203' ),
    '1' );
FILE_NAME ('c8f2.STEP',
    '2023-02-12T11:53:52',
    ( '' ),
    ( '' ),
    'SwSTEP 2.0',
    'SolidWorks 2019',
    '' );
FILE_SCHEMA (( 'CONFIG_CONTROL_DESIGN' ));
ENDSEC;

DATA;
#1 = SECURITY_CLASSIFICATION ( '', '', #114 ) ;
#2 = PERSON_AND_ORGANIZATION ( #53, #124 ) ;
#3 = ORIENTED_EDGE ( 'NONE', *, *, #146, .F. ) ;
#4 = DIRECTION ( 'NONE',  ( 0.000000000000000000, 0.000000000000000000, 1.000000000000000000 ) ) ;
#5 = CYLINDRICAL_SURFACE ( 'NONE', #95, 2.250000000000000000 ) ;
#6 = AXIS2_PLACEMENT_3D ( 'NONE', #185, #4, #141 ) ;
#7 = CARTESIAN_POINT ( 'NONE',  ( 0.000000000000000000, 0.000000000000000000, 100.0000000000000000 ) ) ;
#8 = CARTESIAN_POINT ( 'NONE',  ( 0.000000000000000000, 0.000000000000000000, 100.0000000000000000 ) ) ;
#9 = CC_DESIGN_APPROVAL ( #116, ( #125 ) ) ;
#10 =( GEOMETRIC_REPRESENTATION_CONTEXT ( 3 ) GLOBAL_UNCERTAINTY_ASSIGNED_CONTEXT ( ( #176 ) ) GLOBAL_UNIT_ASSIGNED_CONTEXT ( ( #246, #223, #171 ) ) REPRESENTATION_CONTEXT ( 'NONE', 'WORKASPACE' ) );
#11 = CARTESIAN_POINT ( 'NONE',  ( 0.000000000000000000, 0.000000000000000000, 3.000000000000000000 ) ) ;
#12 = FACE_OUTER_BOUND ( 'NONE', #74, .T. ) ;
#13 = APPROVAL_PERSON_ORGANIZATION ( #230, #254, #54 ) ;
#14 = APPROVAL_PERSON_ORGANIZATION ( #94, #37, #235 ) ;
#15 = CC_DESIGN_DATE_AND_TIME_ASSIGNMENT ( #112, #20, ( #1 ) ) ;
#16 = DIRECTION ( 'NONE',  ( 0.000000000000000000, 0.000000000000000000, 1.000000000000000000 ) ) ;
#17 = ADVANCED_FACE ( 'NONE', ( #123 ), #5, .T. ) ;
#18 = DATE_AND_TIME ( #92, #151 ) ;
#19 = ORIENTED_EDGE ( 'NONE', *, *, #69, .F. ) ;
#20 = DATE_TIME_ROLE ( 'classification_date' ) ;
#21 = VERTEX_POINT ( 'NONE', #87 ) ;
#22 = APPROVAL_ROLE ( '' ) ;
#23 = ORIENTED_EDGE ( 'NONE', *, *, #164, .F. ) ;
#24 = CC_DESIGN_SECURITY_CLASSIFICATION ( #1, ( #125 ) ) ;
#25 = AXIS2_PLACEMENT_3D ( 'NONE', #186, #144, #48 ) ;
#26 = COORDINATED_UNIVERSAL_TIME_OFFSET ( 1, 0, .AHEAD. ) ;
#27 = ORIENTED_EDGE ( 'NONE', *, *, #150, .T. ) ;
#28 = CIRCLE ( 'NONE', #148, 4.000000000000000000 ) ;
#29 = DIRECTION ( 'NONE',  ( -0.000000000000000000, -0.000000000000000000, -1.000000000000000000 ) ) ;
#30 = DIRECTION ( 'NONE',  ( -1.000000000000000000, 0.000000000000000000, 0.000000000000000000 ) ) ;
#31 = VERTEX_POINT ( 'NONE', #99 ) ;
#32 = AXIS2_PLACEMENT_3D ( 'NONE', #64, #68, #219 ) ;
#33 = LINE ( 'NONE', #199, #184 ) ;
#34 = VERTEX_POINT ( 'NONE', #166 ) ;
#35 = DIRECTION ( 'NONE',  ( 0.000000000000000000, 0.000000000000000000, 1.000000000000000000 ) ) ;
#36 = ORIENTED_EDGE ( 'NONE', *, *, #118, .T. ) ;
#37 = APPROVAL ( #177, 'NEURÈENÝ' ) ;
#38 = CALENDAR_DATE ( 2023, 12, 2 ) ;
#39 = PERSON_AND_ORGANIZATION_ROLE ( 'design_owner' ) ;
#40 = ORIENTED_EDGE ( 'NONE', *, *, #110, .T. ) ;
#41 = COORDINATED_UNIVERSAL_TIME_OFFSET ( 1, 0, .AHEAD. ) ;
#42 = VERTEX_POINT ( 'NONE', #126 ) ;
#43 = DIRECTION ( 'NONE',  ( 1.000000000000000000, 0.000000000000000000, 0.000000000000000000 ) ) ;
#44 = CC_DESIGN_APPROVAL ( #254, ( #215 ) ) ;
#45 = DIRECTION ( 'NONE',  ( 1.000000000000000000, 0.000000000000000000, 0.000000000000000000 ) ) ;
#46 = CYLINDRICAL_SURFACE ( 'NONE', #134, 4.000000000000000000 ) ;
#47 = DIRECTION ( 'NONE',  ( -1.000000000000000000, 0.000000000000000000, 0.000000000000000000 ) ) ;
#48 = DIRECTION ( 'NONE',  ( 1.000000000000000000, 0.000000000000000000, -0.000000000000000000 ) ) ;
#49 = FACE_OUTER_BOUND ( 'NONE', #233, .T. ) ;
#50 = PRODUCT_DEFINITION_SHAPE ( 'NONE', 'NONE',  #215 ) ;
#51 = CARTESIAN_POINT ( 'NONE',  ( 0.000000000000000000, 0.000000000000000000, 3.000000000000000000 ) ) ;
#52 = APPLICATION_CONTEXT ( 'configuration controlled 3d designs of mechanical parts and assemblies' ) ;
#53 = PERSON ( 'NEURÈENÝ', 'NEURÈENÝ', 'NEURÈENÝ', ('NEURÈENÝ'), ('NEURÈENÝ'), ('NEURÈENÝ') ) ;
#54 = APPROVAL_ROLE ( '' ) ;
#55 = CALENDAR_DATE ( 2023, 12, 2 ) ;
#56 = COORDINATED_UNIVERSAL_TIME_OFFSET ( 1, 0, .AHEAD. ) ;
#57 = AXIS2_PLACEMENT_3D ( 'NONE', #136, #182, #43 ) ;
#58 = LOCAL_TIME ( 12, 53, 52.00000000000000000, #252 ) ;
#59 = AXIS2_PLACEMENT_3D ( 'NONE', #162, #218, #45 ) ;
#60 = APPROVAL_DATE_TIME ( #97, #116 ) ;
#61 = ORIENTED_EDGE ( 'NONE', *, *, #118, .F. ) ;
#62 = PLANE ( 'NONE',  #86 ) ;
#63 = CARTESIAN_POINT ( 'NONE',  ( 0.000000000000000000, 0.000000000000000000, 3.000000000000000000 ) ) ;
#64 = CARTESIAN_POINT ( 'NONE',  ( 0.000000000000000000, 0.000000000000000000, 3.000000000000000000 ) ) ;
#65 = APPLICATION_CONTEXT ( 'configuration controlled 3d designs of mechanical parts and assemblies' ) ;
#66 = DIRECTION ( 'NONE',  ( 1.000000000000000000, 0.000000000000000000, 0.000000000000000000 ) ) ;
#67 = CIRCLE ( 'NONE', #210, 2.250000000000000000 ) ;
#68 = DIRECTION ( 'NONE',  ( 0.000000000000000000, 0.000000000000000000, 1.000000000000000000 ) ) ;
#69 = EDGE_CURVE ( 'NONE', #168, #42, #241, .T. ) ;
#70 = DATE_TIME_ROLE ( 'creation_date' ) ;
#71 = ORIENTED_EDGE ( 'NONE', *, *, #83, .T. ) ;
#72 = CALENDAR_DATE ( 2023, 12, 2 ) ;
#73 = CC_DESIGN_APPROVAL ( #37, ( #1 ) ) ;
#74 = EDGE_LOOP ( 'NONE', ( #19, #172, #40, #128 ) ) ;
#75 = PERSON_AND_ORGANIZATION_ROLE ( 'classification_officer' ) ;
#76 = VERTEX_POINT ( 'NONE', #165 ) ;
#77 = APPLICATION_PROTOCOL_DEFINITION ( 'international standard', 'config_control_design', 1994, #52 ) ;
#78 = ORIENTED_EDGE ( 'NONE', *, *, #236, .T. ) ;
#79 = DIRECTION ( 'NONE',  ( -1.000000000000000000, 0.000000000000000000, 0.000000000000000000 ) ) ;
#80 = AXIS2_PLACEMENT_3D ( 'NONE', #63, #106, #239 ) ;
#81 = CIRCLE ( 'NONE', #227, 2.250000000000000000 ) ;
#82 = FACE_OUTER_BOUND ( 'NONE', #159, .T. ) ;
#83 = EDGE_CURVE ( 'NONE', #181, #21, #203, .T. ) ;
#84 = CARTESIAN_POINT ( 'NONE',  ( 0.000000000000000000, 0.000000000000000000, 3.000000000000000000 ) ) ;
#85 = ORIENTED_EDGE ( 'NONE', *, *, #69, .T. ) ;
#86 = AXIS2_PLACEMENT_3D ( 'NONE', #7, #16, #130 ) ;
#87 = CARTESIAN_POINT ( 'NONE',  ( 4.000000000000000000, 4.898587196589412829E-16, 0.000000000000000000 ) ) ;
#88 = LINE ( 'NONE', #226, #119 ) ;
#89 = DIRECTION ( 'NONE',  ( 0.000000000000000000, 0.000000000000000000, 1.000000000000000000 ) ) ;
#90 = CARTESIAN_POINT ( 'NONE',  ( 4.000000000000000000, 4.898587196589412829E-16, 3.000000000000000000 ) ) ;
#91 = EDGE_CURVE ( 'NONE', #34, #31, #81, .T. ) ;
#92 = CALENDAR_DATE ( 2023, 12, 2 ) ;
#93 = PRODUCT ( 'c8f2', 'c8f2', '', ( #231 ) ) ;
#94 = PERSON_AND_ORGANIZATION ( #53, #124 ) ;
#95 = AXIS2_PLACEMENT_3D ( 'NONE', #8, #127, #30 ) ;
#96 = EDGE_LOOP ( 'NONE', ( #3, #78, #251, #108 ) ) ;
#97 = DATE_AND_TIME ( #38, #179 ) ;
#98 = CLOSED_SHELL ( 'NONE', ( #101, #206, #170, #249, #160, #17, #204 ) ) ;
#99 = CARTESIAN_POINT ( 'NONE',  ( 2.250000000000000000, 2.755455298081543792E-16, 100.0000000000000000 ) ) ;
#100 = CARTESIAN_POINT ( 'NONE',  ( 0.000000000000000000, 0.000000000000000000, 100.0000000000000000 ) ) ;
#101 = ADVANCED_FACE ( 'NONE', ( #189 ), #169, .T. ) ;
#102 = LINE ( 'NONE', #145, #132 ) ;
#103 = DIRECTION ( 'NONE',  ( -0.000000000000000000, -0.000000000000000000, -1.000000000000000000 ) ) ;
#104 = ADVANCED_BREP_SHAPE_REPRESENTATION ( 'c8f2', ( #140, #57 ), #10 ) ;
#105 = ORIENTED_EDGE ( 'NONE', *, *, #91, .T. ) ;
#106 = DIRECTION ( 'NONE',  ( 0.000000000000000000, 0.000000000000000000, 1.000000000000000000 ) ) ;
#107 = ORIENTED_EDGE ( 'NONE', *, *, #142, .T. ) ;
#108 = ORIENTED_EDGE ( 'NONE', *, *, #137, .F. ) ;
#109 = APPROVAL_PERSON_ORGANIZATION ( #111, #116, #22 ) ;
#110 = EDGE_CURVE ( 'NONE', #21, #181, #28, .T. ) ;
#111 = PERSON_AND_ORGANIZATION ( #53, #124 ) ;
#112 = DATE_AND_TIME ( #55, #155 ) ;
#113 = AXIS2_PLACEMENT_3D ( 'NONE', #207, #89, #147 ) ;
#114 = SECURITY_CLASSIFICATION_LEVEL ( 'unclassified' ) ;
#115 = ORIENTED_EDGE ( 'NONE', *, *, #236, .F. ) ;
#116 = APPROVAL ( #255, 'NEURÈENÝ' ) ;
#117 = AXIS2_PLACEMENT_3D ( 'NONE', #121, #103, #47 ) ;
#118 = EDGE_CURVE ( 'NONE', #190, #76, #214, .T. ) ;
#119 = VECTOR ( 'NONE', #149, 1000.000000000000000 ) ;
#120 = SHAPE_DEFINITION_REPRESENTATION ( #50, #104 ) ;
#121 = CARTESIAN_POINT ( 'NONE',  ( 0.000000000000000000, 0.000000000000000000, 100.0000000000000000 ) ) ;
#122 = DIRECTION ( 'NONE',  ( 0.000000000000000000, 0.000000000000000000, 1.000000000000000000 ) ) ;
#123 = FACE_OUTER_BOUND ( 'NONE', #183, .T. ) ;
#124 = ORGANIZATION ( 'NEURÈENÝ', 'NEURÈENÝ', '' ) ;
#125 = PRODUCT_DEFINITION_FORMATION_WITH_SPECIFIED_SOURCE ( 'LIBOVOLNÝ', '', #93, .NOT_KNOWN. ) ;
#126 = CARTESIAN_POINT ( 'NONE',  ( -4.000000000000000000, 0.000000000000000000, 3.000000000000000000 ) ) ;
#127 = DIRECTION ( 'NONE',  ( -0.000000000000000000, -0.000000000000000000, -1.000000000000000000 ) ) ;
#128 = ORIENTED_EDGE ( 'NONE', *, *, #150, .F. ) ;
#129 = PLANE ( 'NONE',  #113 ) ;
#130 = DIRECTION ( 'NONE',  ( 1.000000000000000000, 0.000000000000000000, -0.000000000000000000 ) ) ;
#131 = PRODUCT_RELATED_PRODUCT_CATEGORY ( 'detail', '', ( #93 ) ) ;
#132 = VECTOR ( 'NONE', #205, 1000.000000000000000 ) ;
#133 = APPROVAL_DATE_TIME ( #18, #254 ) ;
#134 = AXIS2_PLACEMENT_3D ( 'NONE', #11, #222, #79 ) ;
#135 = EDGE_LOOP ( 'NONE', ( #105, #194 ) ) ;
#136 = CARTESIAN_POINT ( 'NONE',  ( 0.000000000000000000, 0.000000000000000000, 0.000000000000000000 ) ) ;
#137 = EDGE_CURVE ( 'NONE', #34, #190, #33, .T. ) ;
#138 = VECTOR ( 'NONE', #247, 1000.000000000000000 ) ;
#139 = FACE_OUTER_BOUND ( 'NONE', #244, .T. ) ;
#140 = MANIFOLD_SOLID_BREP ( 'Pøidat vysunutím3', #98 ) ;
#141 = DIRECTION ( 'NONE',  ( 1.000000000000000000, 0.000000000000000000, 0.000000000000000000 ) ) ;
#142 = EDGE_CURVE ( 'NONE', #42, #168, #174, .T. ) ;
#143 = LOCAL_TIME ( 12, 53, 52.00000000000000000, #56 ) ;
#144 = DIRECTION ( 'NONE',  ( 0.000000000000000000, 0.000000000000000000, 1.000000000000000000 ) ) ;
#145 = CARTESIAN_POINT ( 'NONE',  ( -4.000000000000000000, 0.000000000000000000, 3.000000000000000000 ) ) ;
#146 = EDGE_CURVE ( 'NONE', #31, #34, #67, .T. ) ;
#147 = DIRECTION ( 'NONE',  ( 1.000000000000000000, 0.000000000000000000, -0.000000000000000000 ) ) ;
#148 = AXIS2_PLACEMENT_3D ( 'NONE', #242, #202, #188 ) ;
#149 = DIRECTION ( 'NONE',  ( -0.000000000000000000, -0.000000000000000000, -1.000000000000000000 ) ) ;
#150 = EDGE_CURVE ( 'NONE', #42, #181, #102, .T. ) ;
#151 = LOCAL_TIME ( 12, 53, 52.00000000000000000, #41 ) ;
#152 = PERSON_AND_ORGANIZATION_ROLE ( 'design_supplier' ) ;
#153 = ORIENTED_EDGE ( 'NONE', *, *, #110, .F. ) ;
#154 = DATE_AND_TIME ( #72, #58 ) ;
#155 = LOCAL_TIME ( 12, 53, 52.00000000000000000, #26 ) ;
#156 = PERSON_AND_ORGANIZATION ( #53, #124 ) ;
#157 = APPROVAL_STATUS ( 'not_yet_approved' ) ;
#158 = ORIENTED_EDGE ( 'NONE', *, *, #91, .F. ) ;
#159 = EDGE_LOOP ( 'NONE', ( #238, #253, #27, #71 ) ) ;
#160 = ADVANCED_FACE ( 'NONE', ( #139 ), #200, .F. ) ;
#161 = CARTESIAN_POINT ( 'NONE',  ( -4.000000000000000000, 0.000000000000000000, 0.000000000000000000 ) ) ;
#162 = CARTESIAN_POINT ( 'NONE',  ( 0.000000000000000000, 0.000000000000000000, 3.000000000000000000 ) ) ;
#163 = CC_DESIGN_DATE_AND_TIME_ASSIGNMENT ( #178, #70, ( #215 ) ) ;
#164 = EDGE_CURVE ( 'NONE', #76, #190, #167, .T. ) ;
#165 = CARTESIAN_POINT ( 'NONE',  ( 2.250000000000000000, 2.755455298081543792E-16, 3.000000000000000000 ) ) ;
#166 = CARTESIAN_POINT ( 'NONE',  ( -2.250000000000000000, 0.000000000000000000, 100.0000000000000000 ) ) ;
#167 = CIRCLE ( 'NONE', #80, 2.250000000000000000 ) ;
#168 = VERTEX_POINT ( 'NONE', #217 ) ;
#169 = CYLINDRICAL_SURFACE ( 'NONE', #117, 2.250000000000000000 ) ;
#170 = ADVANCED_FACE ( 'NONE', ( #82 ), #46, .T. ) ;
#171 =( NAMED_UNIT ( * ) SI_UNIT ( $, .STERADIAN. ) SOLID_ANGLE_UNIT ( ) );
#172 = ORIENTED_EDGE ( 'NONE', *, *, #220, .T. ) ;
#173 = DIRECTION ( 'NONE',  ( -0.000000000000000000, -0.000000000000000000, -1.000000000000000000 ) ) ;
#174 = CIRCLE ( 'NONE', #59, 4.000000000000000000 ) ;
#175 = DIRECTION ( 'NONE',  ( -1.000000000000000000, 0.000000000000000000, 0.000000000000000000 ) ) ;
#176 = UNCERTAINTY_MEASURE_WITH_UNIT (LENGTH_MEASURE( 1.000000000000000082E-05 ), #246, 'distance_accuracy_value', 'NONE');
#177 = APPROVAL_STATUS ( 'not_yet_approved' ) ;
#178 = DATE_AND_TIME ( #198, #143 ) ;
#179 = LOCAL_TIME ( 12, 53, 52.00000000000000000, #211 ) ;
#180 = PERSON_AND_ORGANIZATION ( #53, #124 ) ;
#181 = VERTEX_POINT ( 'NONE', #161 ) ;
#182 = DIRECTION ( 'NONE',  ( 0.000000000000000000, 0.000000000000000000, 1.000000000000000000 ) ) ;
#183 = EDGE_LOOP ( 'NONE', ( #115, #158, #225, #36 ) ) ;
#184 = VECTOR ( 'NONE', #29, 1000.000000000000000 ) ;
#185 = CARTESIAN_POINT ( 'NONE',  ( 0.000000000000000000, 0.000000000000000000, 0.000000000000000000 ) ) ;
#186 = CARTESIAN_POINT ( 'NONE',  ( 0.000000000000000000, 0.000000000000000000, 0.000000000000000000 ) ) ;
#187 = FACE_OUTER_BOUND ( 'NONE', #135, .T. ) ;
#188 = DIRECTION ( 'NONE',  ( 1.000000000000000000, 0.000000000000000000, 0.000000000000000000 ) ) ;
#189 = FACE_OUTER_BOUND ( 'NONE', #96, .T. ) ;
#190 = VERTEX_POINT ( 'NONE', #201 ) ;
#191 = ORIENTED_EDGE ( 'NONE', *, *, #83, .F. ) ;
#192 = CC_DESIGN_PERSON_AND_ORGANIZATION_ASSIGNMENT ( #2, #152, ( #125 ) ) ;
#193 = PERSON_AND_ORGANIZATION ( #53, #124 ) ;
#194 = ORIENTED_EDGE ( 'NONE', *, *, #146, .T. ) ;
#195 = AXIS2_PLACEMENT_3D ( 'NONE', #84, #35, #245 ) ;
#196 = APPLICATION_PROTOCOL_DEFINITION ( 'international standard', 'config_control_design', 1994, #65 ) ;
#197 = PERSON_AND_ORGANIZATION_ROLE ( 'creator' ) ;
#198 = CALENDAR_DATE ( 2023, 12, 2 ) ;
#199 = CARTESIAN_POINT ( 'NONE',  ( -2.250000000000000000, 0.000000000000000000, 100.0000000000000000 ) ) ;
#200 = PLANE ( 'NONE',  #25 ) ;
#201 = CARTESIAN_POINT ( 'NONE',  ( -2.250000000000000000, 0.000000000000000000, 3.000000000000000000 ) ) ;
#202 = DIRECTION ( 'NONE',  ( 0.000000000000000000, 0.000000000000000000, 1.000000000000000000 ) ) ;
#203 = CIRCLE ( 'NONE', #6, 4.000000000000000000 ) ;
#204 = ADVANCED_FACE ( 'NONE', ( #187 ), #62, .T. ) ;
#205 = DIRECTION ( 'NONE',  ( -0.000000000000000000, -0.000000000000000000, -1.000000000000000000 ) ) ;
#206 = ADVANCED_FACE ( 'NONE', ( #12 ), #228, .T. ) ;
#207 = CARTESIAN_POINT ( 'NONE',  ( 0.000000000000000000, 0.000000000000000000, 3.000000000000000000 ) ) ;
#208 = CC_DESIGN_PERSON_AND_ORGANIZATION_ASSIGNMENT ( #250, #197, ( #215 ) ) ;
#209 = CC_DESIGN_PERSON_AND_ORGANIZATION_ASSIGNMENT ( #193, #39, ( #93 ) ) ;
#210 = AXIS2_PLACEMENT_3D ( 'NONE', #100, #122, #66 ) ;
#211 = COORDINATED_UNIVERSAL_TIME_OFFSET ( 1, 0, .AHEAD. ) ;
#212 = CC_DESIGN_PERSON_AND_ORGANIZATION_ASSIGNMENT ( #156, #75, ( #1 ) ) ;
#213 = PERSON_AND_ORGANIZATION_ROLE ( 'creator' ) ;
#214 = CIRCLE ( 'NONE', #32, 2.250000000000000000 ) ;
#215 = PRODUCT_DEFINITION ( 'NEZNÁMÝ', '', #125, #232 ) ;
#216 = CC_DESIGN_PERSON_AND_ORGANIZATION_ASSIGNMENT ( #180, #213, ( #125 ) ) ;
#217 = CARTESIAN_POINT ( 'NONE',  ( 4.000000000000000000, 4.898587196589412829E-16, 3.000000000000000000 ) ) ;
#218 = DIRECTION ( 'NONE',  ( 0.000000000000000000, 0.000000000000000000, 1.000000000000000000 ) ) ;
#219 = DIRECTION ( 'NONE',  ( 1.000000000000000000, 0.000000000000000000, 0.000000000000000000 ) ) ;
#220 = EDGE_CURVE ( 'NONE', #168, #21, #248, .T. ) ;
#221 = CARTESIAN_POINT ( 'NONE',  ( 0.000000000000000000, 0.000000000000000000, 100.0000000000000000 ) ) ;
#222 = DIRECTION ( 'NONE',  ( -0.000000000000000000, -0.000000000000000000, -1.000000000000000000 ) ) ;
#223 =( NAMED_UNIT ( * ) PLANE_ANGLE_UNIT ( ) SI_UNIT ( $, .RADIAN. ) );
#224 = AXIS2_PLACEMENT_3D ( 'NONE', #51, #173, #175 ) ;
#225 = ORIENTED_EDGE ( 'NONE', *, *, #137, .T. ) ;
#226 = CARTESIAN_POINT ( 'NONE',  ( 2.250000000000000000, 2.755455298081543792E-16, 100.0000000000000000 ) ) ;
#227 = AXIS2_PLACEMENT_3D ( 'NONE', #221, #240, #243 ) ;
#228 = CYLINDRICAL_SURFACE ( 'NONE', #224, 4.000000000000000000 ) ;
#229 = FACE_BOUND ( 'NONE', #237, .T. ) ;
#230 = PERSON_AND_ORGANIZATION ( #53, #124 ) ;
#231 = MECHANICAL_CONTEXT ( 'NONE', #52, 'mechanical' ) ;
#232 = DESIGN_CONTEXT ( 'detailed design', #65, 'design' ) ;
#233 = EDGE_LOOP ( 'NONE', ( #107, #85 ) ) ;
#234 = APPROVAL_DATE_TIME ( #154, #37 ) ;
#235 = APPROVAL_ROLE ( '' ) ;
#236 = EDGE_CURVE ( 'NONE', #31, #76, #88, .T. ) ;
#237 = EDGE_LOOP ( 'NONE', ( #61, #23 ) ) ;
#238 = ORIENTED_EDGE ( 'NONE', *, *, #220, .F. ) ;
#239 = DIRECTION ( 'NONE',  ( 1.000000000000000000, 0.000000000000000000, 0.000000000000000000 ) ) ;
#240 = DIRECTION ( 'NONE',  ( 0.000000000000000000, 0.000000000000000000, 1.000000000000000000 ) ) ;
#241 = CIRCLE ( 'NONE', #195, 4.000000000000000000 ) ;
#242 = CARTESIAN_POINT ( 'NONE',  ( 0.000000000000000000, 0.000000000000000000, 0.000000000000000000 ) ) ;
#243 = DIRECTION ( 'NONE',  ( 1.000000000000000000, 0.000000000000000000, 0.000000000000000000 ) ) ;
#244 = EDGE_LOOP ( 'NONE', ( #191, #153 ) ) ;
#245 = DIRECTION ( 'NONE',  ( 1.000000000000000000, 0.000000000000000000, 0.000000000000000000 ) ) ;
#246 =( LENGTH_UNIT ( ) NAMED_UNIT ( * ) SI_UNIT ( .MILLI., .METRE. ) );
#247 = DIRECTION ( 'NONE',  ( -0.000000000000000000, -0.000000000000000000, -1.000000000000000000 ) ) ;
#248 = LINE ( 'NONE', #90, #138 ) ;
#249 = ADVANCED_FACE ( 'NONE', ( #229, #49 ), #129, .T. ) ;
#250 = PERSON_AND_ORGANIZATION ( #53, #124 ) ;
#251 = ORIENTED_EDGE ( 'NONE', *, *, #164, .T. ) ;
#252 = COORDINATED_UNIVERSAL_TIME_OFFSET ( 1, 0, .AHEAD. ) ;
#253 = ORIENTED_EDGE ( 'NONE', *, *, #142, .F. ) ;
#254 = APPROVAL ( #157, 'NEURÈENÝ' ) ;
#255 = APPROVAL_STATUS ( 'not_yet_approved' ) ;
ENDSEC;
END-ISO-10303-21;
