ISO-10303-21;
HEADER;
FILE_DESCRIPTION (( 'STEP AP203' ),
    '1' );
FILE_NAME ('efab.STEP',
    '2023-02-12T11:41:40',
    ( '' ),
    ( '' ),
    'SwSTEP 2.0',
    'SolidWorks 2019',
    '' );
FILE_SCHEMA (( 'CONFIG_CONTROL_DESIGN' ));
ENDSEC;

DATA;
#1 = CARTESIAN_POINT ( 'NONE',  ( 0.000000000000000000, 0.000000000000000000, 315.0000000000000000 ) ) ;
#2 = AXIS2_PLACEMENT_3D ( 'NONE', #165, #229, #160 ) ;
#3 =( GEOMETRIC_REPRESENTATION_CONTEXT ( 3 ) GLOBAL_UNCERTAINTY_ASSIGNED_CONTEXT ( ( #119 ) ) GLOBAL_UNIT_ASSIGNED_CONTEXT ( ( #219, #201, #186 ) ) REPRESENTATION_CONTEXT ( 'NONE', 'WORKASPACE' ) );
#4 = APPROVAL_ROLE ( '' ) ;
#5 = CYLINDRICAL_SURFACE ( 'NONE', #86, 5.000000000000000000 ) ;
#6 = APPROVAL_PERSON_ORGANIZATION ( #190, #68, #208 ) ;
#7 = CC_DESIGN_PERSON_AND_ORGANIZATION_ASSIGNMENT ( #157, #31, ( #62 ) ) ;
#8 = COORDINATED_UNIVERSAL_TIME_OFFSET ( 1, 0, .AHEAD. ) ;
#9 = VECTOR ( 'NONE', #161, 1000.000000000000000 ) ;
#10 = CARTESIAN_POINT ( 'NONE',  ( 0.000000000000000000, 0.000000000000000000, 315.0000000000000000 ) ) ;
#11 = CARTESIAN_POINT ( 'NONE',  ( -5.000000000000000000, 0.000000000000000000, 3.000000000000000000 ) ) ;
#12 = DESIGN_CONTEXT ( 'detailed design', #88, 'design' ) ;
#13 = CARTESIAN_POINT ( 'NONE',  ( 0.000000000000000000, 0.000000000000000000, 3.000000000000000000 ) ) ;
#14 = CIRCLE ( 'NONE', #48, 2.750000000000000000 ) ;
#15 = LINE ( 'NONE', #178, #240 ) ;
#16 = AXIS2_PLACEMENT_3D ( 'NONE', #238, #242, #70 ) ;
#17 = EDGE_LOOP ( 'NONE', ( #237, #155 ) ) ;
#18 = CC_DESIGN_PERSON_AND_ORGANIZATION_ASSIGNMENT ( #131, #29, ( #27 ) ) ;
#19 = DIRECTION ( 'NONE',  ( 0.000000000000000000, 0.000000000000000000, 1.000000000000000000 ) ) ;
#20 = EDGE_LOOP ( 'NONE', ( #247, #39 ) ) ;
#21 = APPLICATION_PROTOCOL_DEFINITION ( 'international standard', 'config_control_design', 1994, #88 ) ;
#22 = CIRCLE ( 'NONE', #16, 5.000000000000000000 ) ;
#23 = CC_DESIGN_APPROVAL ( #163, ( #193 ) ) ;
#24 = APPLICATION_PROTOCOL_DEFINITION ( 'international standard', 'config_control_design', 1994, #56 ) ;
#25 = PERSON ( 'NEURÈENÝ', 'NEURÈENÝ', 'NEURÈENÝ', ('NEURÈENÝ'), ('NEURÈENÝ'), ('NEURÈENÝ') ) ;
#26 = CALENDAR_DATE ( 2023, 12, 2 ) ;
#27 = PRODUCT ( 'efab', 'efab', '', ( #130 ) ) ;
#28 = EDGE_CURVE ( 'NONE', #225, #220, #41, .T. ) ;
#29 = PERSON_AND_ORGANIZATION_ROLE ( 'design_owner' ) ;
#30 = PRODUCT_DEFINITION_SHAPE ( 'NONE', 'NONE',  #193 ) ;
#31 = PERSON_AND_ORGANIZATION_ROLE ( 'creator' ) ;
#32 = DIRECTION ( 'NONE',  ( -0.000000000000000000, -0.000000000000000000, -1.000000000000000000 ) ) ;
#33 = PERSON_AND_ORGANIZATION ( #25, #46 ) ;
#34 = ORIENTED_EDGE ( 'NONE', *, *, #74, .F. ) ;
#35 = PERSON_AND_ORGANIZATION_ROLE ( 'design_supplier' ) ;
#36 = ORIENTED_EDGE ( 'NONE', *, *, #223, .T. ) ;
#37 = LOCAL_TIME ( 12, 41, 40.00000000000000000, #191 ) ;
#38 = DATE_AND_TIME ( #26, #250 ) ;
#39 = ORIENTED_EDGE ( 'NONE', *, *, #108, .T. ) ;
#40 = APPROVAL_ROLE ( '' ) ;
#41 = LINE ( 'NONE', #77, #182 ) ;
#42 = DIRECTION ( 'NONE',  ( 1.000000000000000000, 0.000000000000000000, -0.000000000000000000 ) ) ;
#43 = DIRECTION ( 'NONE',  ( -0.000000000000000000, -0.000000000000000000, -1.000000000000000000 ) ) ;
#44 = FACE_OUTER_BOUND ( 'NONE', #20, .T. ) ;
#45 = DIRECTION ( 'NONE',  ( 1.000000000000000000, 0.000000000000000000, -0.000000000000000000 ) ) ;
#46 = ORGANIZATION ( 'NEURÈENÝ', 'NEURÈENÝ', '' ) ;
#47 = ORIENTED_EDGE ( 'NONE', *, *, #170, .T. ) ;
#48 = AXIS2_PLACEMENT_3D ( 'NONE', #13, #79, #66 ) ;
#49 = FACE_OUTER_BOUND ( 'NONE', #136, .T. ) ;
#50 = LOCAL_TIME ( 12, 41, 40.00000000000000000, #8 ) ;
#51 = ADVANCED_BREP_SHAPE_REPRESENTATION ( 'efab', ( #78, #106 ), #3 ) ;
#52 = ORIENTED_EDGE ( 'NONE', *, *, #96, .F. ) ;
#53 = DATE_TIME_ROLE ( 'classification_date' ) ;
#54 = ORIENTED_EDGE ( 'NONE', *, *, #172, .F. ) ;
#55 = CALENDAR_DATE ( 2023, 12, 2 ) ;
#56 = APPLICATION_CONTEXT ( 'configuration controlled 3d designs of mechanical parts and assemblies' ) ;
#57 = CIRCLE ( 'NONE', #2, 2.750000000000000000 ) ;
#58 = PERSON_AND_ORGANIZATION ( #25, #46 ) ;
#59 = ADVANCED_FACE ( 'NONE', ( #194 ), #5, .T. ) ;
#60 = CARTESIAN_POINT ( 'NONE',  ( 0.000000000000000000, 0.000000000000000000, 3.000000000000000000 ) ) ;
#61 = AXIS2_PLACEMENT_3D ( 'NONE', #10, #19, #45 ) ;
#62 = PRODUCT_DEFINITION_FORMATION_WITH_SPECIFIED_SOURCE ( 'LIBOVOLNÝ', '', #27, .NOT_KNOWN. ) ;
#63 = CYLINDRICAL_SURFACE ( 'NONE', #222, 5.000000000000000000 ) ;
#64 = DIRECTION ( 'NONE',  ( -1.000000000000000000, 0.000000000000000000, 0.000000000000000000 ) ) ;
#65 = CARTESIAN_POINT ( 'NONE',  ( 0.000000000000000000, 0.000000000000000000, 3.000000000000000000 ) ) ;
#66 = DIRECTION ( 'NONE',  ( 1.000000000000000000, 0.000000000000000000, 0.000000000000000000 ) ) ;
#67 = VECTOR ( 'NONE', #218, 1000.000000000000000 ) ;
#68 = APPROVAL ( #154, 'NEURÈENÝ' ) ;
#69 = DIRECTION ( 'NONE',  ( 1.000000000000000000, 0.000000000000000000, 0.000000000000000000 ) ) ;
#70 = DIRECTION ( 'NONE',  ( 1.000000000000000000, 0.000000000000000000, 0.000000000000000000 ) ) ;
#71 = ADVANCED_FACE ( 'NONE', ( #188 ), #168, .T. ) ;
#72 = COORDINATED_UNIVERSAL_TIME_OFFSET ( 1, 0, .AHEAD. ) ;
#73 = ORIENTED_EDGE ( 'NONE', *, *, #147, .F. ) ;
#74 = EDGE_CURVE ( 'NONE', #84, #173, #248, .T. ) ;
#75 = ORIENTED_EDGE ( 'NONE', *, *, #156, .F. ) ;
#76 = CIRCLE ( 'NONE', #104, 2.750000000000000000 ) ;
#77 = CARTESIAN_POINT ( 'NONE',  ( 2.750000000000000000, 3.367778697655221012E-16, 315.0000000000000000 ) ) ;
#78 = MANIFOLD_SOLID_BREP ( 'Pøidat vysunutím3', #97 ) ;
#79 = DIRECTION ( 'NONE',  ( 0.000000000000000000, 0.000000000000000000, 1.000000000000000000 ) ) ;
#80 = CC_DESIGN_APPROVAL ( #68, ( #93 ) ) ;
#81 = FACE_OUTER_BOUND ( 'NONE', #244, .T. ) ;
#82 = EDGE_LOOP ( 'NONE', ( #52, #73 ) ) ;
#83 = DIRECTION ( 'NONE',  ( 1.000000000000000000, 0.000000000000000000, 0.000000000000000000 ) ) ;
#84 = VERTEX_POINT ( 'NONE', #11 ) ;
#85 = PLANE ( 'NONE',  #139 ) ;
#86 = AXIS2_PLACEMENT_3D ( 'NONE', #60, #32, #111 ) ;
#87 = DIRECTION ( 'NONE',  ( 0.000000000000000000, 0.000000000000000000, 1.000000000000000000 ) ) ;
#88 = APPLICATION_CONTEXT ( 'configuration controlled 3d designs of mechanical parts and assemblies' ) ;
#89 = APPROVAL_STATUS ( 'not_yet_approved' ) ;
#90 = DIRECTION ( 'NONE',  ( 1.000000000000000000, 0.000000000000000000, -0.000000000000000000 ) ) ;
#91 = PRODUCT_RELATED_PRODUCT_CATEGORY ( 'detail', '', ( #27 ) ) ;
#92 = ORIENTED_EDGE ( 'NONE', *, *, #170, .F. ) ;
#93 = SECURITY_CLASSIFICATION ( '', '', #189 ) ;
#94 = DATE_AND_TIME ( #206, #37 ) ;
#95 = ORIENTED_EDGE ( 'NONE', *, *, #156, .T. ) ;
#96 = EDGE_CURVE ( 'NONE', #227, #220, #14, .T. ) ;
#97 = CLOSED_SHELL ( 'NONE', ( #118, #59, #127, #102, #213, #71, #132 ) ) ;
#98 = FACE_BOUND ( 'NONE', #82, .T. ) ;
#99 = FACE_OUTER_BOUND ( 'NONE', #17, .T. ) ;
#100 = DIRECTION ( 'NONE',  ( -0.000000000000000000, -0.000000000000000000, -1.000000000000000000 ) ) ;
#101 = VERTEX_POINT ( 'NONE', #180 ) ;
#102 = ADVANCED_FACE ( 'NONE', ( #98, #99 ), #85, .T. ) ;
#103 = APPROVAL_DATE_TIME ( #124, #163 ) ;
#104 = AXIS2_PLACEMENT_3D ( 'NONE', #164, #144, #117 ) ;
#105 = CARTESIAN_POINT ( 'NONE',  ( 0.000000000000000000, 0.000000000000000000, 3.000000000000000000 ) ) ;
#106 = AXIS2_PLACEMENT_3D ( 'NONE', #151, #152, #69 ) ;
#107 = DIRECTION ( 'NONE',  ( 1.000000000000000000, 0.000000000000000000, 0.000000000000000000 ) ) ;
#108 = EDGE_CURVE ( 'NONE', #225, #211, #76, .T. ) ;
#109 = APPROVAL ( #141, 'NEURÈENÝ' ) ;
#110 = PERSON_AND_ORGANIZATION_ROLE ( 'classification_officer' ) ;
#111 = DIRECTION ( 'NONE',  ( -1.000000000000000000, 0.000000000000000000, 0.000000000000000000 ) ) ;
#112 = DATE_AND_TIME ( #135, #128 ) ;
#113 = DIRECTION ( 'NONE',  ( -0.000000000000000000, -0.000000000000000000, -1.000000000000000000 ) ) ;
#114 = DIRECTION ( 'NONE',  ( -0.000000000000000000, -0.000000000000000000, -1.000000000000000000 ) ) ;
#115 = ORIENTED_EDGE ( 'NONE', *, *, #233, .F. ) ;
#116 = ORIENTED_EDGE ( 'NONE', *, *, #223, .F. ) ;
#117 = DIRECTION ( 'NONE',  ( 1.000000000000000000, 0.000000000000000000, 0.000000000000000000 ) ) ;
#118 = ADVANCED_FACE ( 'NONE', ( #81 ), #228, .T. ) ;
#119 = UNCERTAINTY_MEASURE_WITH_UNIT (LENGTH_MEASURE( 1.000000000000000082E-05 ), #219, 'distance_accuracy_value', 'NONE');
#120 = DIRECTION ( 'NONE',  ( 0.000000000000000000, 0.000000000000000000, 1.000000000000000000 ) ) ;
#121 = AXIS2_PLACEMENT_3D ( 'NONE', #209, #113, #175 ) ;
#122 = AXIS2_PLACEMENT_3D ( 'NONE', #105, #125, #107 ) ;
#123 = CARTESIAN_POINT ( 'NONE',  ( -2.750000000000000000, 0.000000000000000000, 315.0000000000000000 ) ) ;
#124 = DATE_AND_TIME ( #204, #143 ) ;
#125 = DIRECTION ( 'NONE',  ( 0.000000000000000000, 0.000000000000000000, 1.000000000000000000 ) ) ;
#126 = ORIENTED_EDGE ( 'NONE', *, *, #108, .F. ) ;
#127 = ADVANCED_FACE ( 'NONE', ( #176 ), #63, .T. ) ;
#128 = LOCAL_TIME ( 12, 41, 40.00000000000000000, #72 ) ;
#129 = CC_DESIGN_SECURITY_CLASSIFICATION ( #93, ( #62 ) ) ;
#130 = MECHANICAL_CONTEXT ( 'NONE', #56, 'mechanical' ) ;
#131 = PERSON_AND_ORGANIZATION ( #25, #46 ) ;
#132 = ADVANCED_FACE ( 'NONE', ( #44 ), #196, .T. ) ;
#133 = DATE_TIME_ROLE ( 'creation_date' ) ;
#134 = AXIS2_PLACEMENT_3D ( 'NONE', #65, #251, #83 ) ;
#135 = CALENDAR_DATE ( 2023, 12, 2 ) ;
#136 = EDGE_LOOP ( 'NONE', ( #116, #75 ) ) ;
#137 = ORIENTED_EDGE ( 'NONE', *, *, #255, .F. ) ;
#138 = APPROVAL_DATE_TIME ( #246, #68 ) ;
#139 = AXIS2_PLACEMENT_3D ( 'NONE', #197, #120, #42 ) ;
#140 = AXIS2_PLACEMENT_3D ( 'NONE', #1, #87, #236 ) ;
#141 = APPROVAL_STATUS ( 'not_yet_approved' ) ;
#142 = CARTESIAN_POINT ( 'NONE',  ( 0.000000000000000000, 0.000000000000000000, 0.000000000000000000 ) ) ;
#143 = LOCAL_TIME ( 12, 41, 40.00000000000000000, #205 ) ;
#144 = DIRECTION ( 'NONE',  ( 0.000000000000000000, 0.000000000000000000, 1.000000000000000000 ) ) ;
#145 = DIRECTION ( 'NONE',  ( -0.000000000000000000, -0.000000000000000000, -1.000000000000000000 ) ) ;
#146 = CARTESIAN_POINT ( 'NONE',  ( -5.000000000000000000, 0.000000000000000000, 0.000000000000000000 ) ) ;
#147 = EDGE_CURVE ( 'NONE', #220, #227, #57, .T. ) ;
#148 = ORIENTED_EDGE ( 'NONE', *, *, #28, .F. ) ;
#149 = PERSON_AND_ORGANIZATION ( #25, #46 ) ;
#150 = EDGE_LOOP ( 'NONE', ( #92, #137, #231, #36 ) ) ;
#151 = CARTESIAN_POINT ( 'NONE',  ( 0.000000000000000000, 0.000000000000000000, 0.000000000000000000 ) ) ;
#152 = DIRECTION ( 'NONE',  ( 0.000000000000000000, 0.000000000000000000, 1.000000000000000000 ) ) ;
#153 = CC_DESIGN_APPROVAL ( #109, ( #62 ) ) ;
#154 = APPROVAL_STATUS ( 'not_yet_approved' ) ;
#155 = ORIENTED_EDGE ( 'NONE', *, *, #172, .T. ) ;
#156 = EDGE_CURVE ( 'NONE', #199, #173, #158, .T. ) ;
#157 = PERSON_AND_ORGANIZATION ( #25, #46 ) ;
#158 = CIRCLE ( 'NONE', #187, 5.000000000000000000 ) ;
#159 = CC_DESIGN_PERSON_AND_ORGANIZATION_ASSIGNMENT ( #33, #35, ( #62 ) ) ;
#160 = DIRECTION ( 'NONE',  ( 1.000000000000000000, 0.000000000000000000, 0.000000000000000000 ) ) ;
#161 = DIRECTION ( 'NONE',  ( -0.000000000000000000, -0.000000000000000000, -1.000000000000000000 ) ) ;
#162 = EDGE_LOOP ( 'NONE', ( #148, #234, #179, #252 ) ) ;
#163 = APPROVAL ( #89, 'NEURÈENÝ' ) ;
#164 = CARTESIAN_POINT ( 'NONE',  ( 0.000000000000000000, 0.000000000000000000, 315.0000000000000000 ) ) ;
#165 = CARTESIAN_POINT ( 'NONE',  ( 0.000000000000000000, 0.000000000000000000, 3.000000000000000000 ) ) ;
#166 = PLANE ( 'NONE',  #169 ) ;
#167 = CARTESIAN_POINT ( 'NONE',  ( 2.750000000000000000, 3.367778697655221012E-16, 315.0000000000000000 ) ) ;
#168 = CYLINDRICAL_SURFACE ( 'NONE', #121, 2.750000000000000000 ) ;
#169 = AXIS2_PLACEMENT_3D ( 'NONE', #203, #181, #90 ) ;
#170 = EDGE_CURVE ( 'NONE', #101, #199, #15, .T. ) ;
#171 = SHAPE_DEFINITION_REPRESENTATION ( #30, #51 ) ;
#172 = EDGE_CURVE ( 'NONE', #101, #84, #174, .T. ) ;
#173 = VERTEX_POINT ( 'NONE', #146 ) ;
#174 = CIRCLE ( 'NONE', #134, 5.000000000000000000 ) ;
#175 = DIRECTION ( 'NONE',  ( -1.000000000000000000, 0.000000000000000000, 0.000000000000000000 ) ) ;
#176 = FACE_OUTER_BOUND ( 'NONE', #150, .T. ) ;
#177 = CC_DESIGN_DATE_AND_TIME_ASSIGNMENT ( #38, #133, ( #193 ) ) ;
#178 = CARTESIAN_POINT ( 'NONE',  ( 5.000000000000000000, 6.123233995736766282E-16, 3.000000000000000000 ) ) ;
#179 = ORIENTED_EDGE ( 'NONE', *, *, #233, .T. ) ;
#180 = CARTESIAN_POINT ( 'NONE',  ( 5.000000000000000000, 6.123233995736766282E-16, 3.000000000000000000 ) ) ;
#181 = DIRECTION ( 'NONE',  ( 0.000000000000000000, 0.000000000000000000, 1.000000000000000000 ) ) ;
#182 = VECTOR ( 'NONE', #114, 1000.000000000000000 ) ;
#183 = APPROVAL_PERSON_ORGANIZATION ( #149, #163, #4 ) ;
#184 = CARTESIAN_POINT ( 'NONE',  ( 2.750000000000000000, 3.367778697655221012E-16, 3.000000000000000000 ) ) ;
#185 = COORDINATED_UNIVERSAL_TIME_OFFSET ( 1, 0, .AHEAD. ) ;
#186 =( NAMED_UNIT ( * ) SI_UNIT ( $, .STERADIAN. ) SOLID_ANGLE_UNIT ( ) );
#187 = AXIS2_PLACEMENT_3D ( 'NONE', #142, #214, #232 ) ;
#188 = FACE_OUTER_BOUND ( 'NONE', #162, .T. ) ;
#189 = SECURITY_CLASSIFICATION_LEVEL ( 'unclassified' ) ;
#190 = PERSON_AND_ORGANIZATION ( #25, #46 ) ;
#191 = COORDINATED_UNIVERSAL_TIME_OFFSET ( 1, 0, .AHEAD. ) ;
#192 = EDGE_LOOP ( 'NONE', ( #54, #47, #95, #34 ) ) ;
#193 = PRODUCT_DEFINITION ( 'NEZNÁMÝ', '', #62, #12 ) ;
#194 = FACE_OUTER_BOUND ( 'NONE', #192, .T. ) ;
#195 = CARTESIAN_POINT ( 'NONE',  ( 0.000000000000000000, 0.000000000000000000, 3.000000000000000000 ) ) ;
#196 = PLANE ( 'NONE',  #61 ) ;
#197 = CARTESIAN_POINT ( 'NONE',  ( 0.000000000000000000, 0.000000000000000000, 3.000000000000000000 ) ) ;
#198 = AXIS2_PLACEMENT_3D ( 'NONE', #230, #100, #215 ) ;
#199 = VERTEX_POINT ( 'NONE', #216 ) ;
#200 = CC_DESIGN_PERSON_AND_ORGANIZATION_ASSIGNMENT ( #224, #110, ( #93 ) ) ;
#201 =( NAMED_UNIT ( * ) PLANE_ANGLE_UNIT ( ) SI_UNIT ( $, .RADIAN. ) );
#202 = APPROVAL_PERSON_ORGANIZATION ( #58, #109, #40 ) ;
#203 = CARTESIAN_POINT ( 'NONE',  ( 0.000000000000000000, 0.000000000000000000, 0.000000000000000000 ) ) ;
#204 = CALENDAR_DATE ( 2023, 12, 2 ) ;
#205 = COORDINATED_UNIVERSAL_TIME_OFFSET ( 1, 0, .AHEAD. ) ;
#206 = CALENDAR_DATE ( 2023, 12, 2 ) ;
#207 = ORIENTED_EDGE ( 'NONE', *, *, #28, .T. ) ;
#208 = APPROVAL_ROLE ( '' ) ;
#209 = CARTESIAN_POINT ( 'NONE',  ( 0.000000000000000000, 0.000000000000000000, 315.0000000000000000 ) ) ;
#210 = APPROVAL_DATE_TIME ( #94, #109 ) ;
#211 = VERTEX_POINT ( 'NONE', #123 ) ;
#212 = ORIENTED_EDGE ( 'NONE', *, *, #147, .T. ) ;
#213 = ADVANCED_FACE ( 'NONE', ( #49 ), #166, .F. ) ;
#214 = DIRECTION ( 'NONE',  ( 0.000000000000000000, 0.000000000000000000, 1.000000000000000000 ) ) ;
#215 = DIRECTION ( 'NONE',  ( -1.000000000000000000, 0.000000000000000000, 0.000000000000000000 ) ) ;
#216 = CARTESIAN_POINT ( 'NONE',  ( 5.000000000000000000, 6.123233995736766282E-16, 0.000000000000000000 ) ) ;
#217 = EDGE_CURVE ( 'NONE', #211, #225, #245, .T. ) ;
#218 = DIRECTION ( 'NONE',  ( -0.000000000000000000, -0.000000000000000000, -1.000000000000000000 ) ) ;
#219 =( LENGTH_UNIT ( ) NAMED_UNIT ( * ) SI_UNIT ( .MILLI., .METRE. ) );
#220 = VERTEX_POINT ( 'NONE', #184 ) ;
#221 = PERSON_AND_ORGANIZATION_ROLE ( 'creator' ) ;
#222 = AXIS2_PLACEMENT_3D ( 'NONE', #195, #145, #64 ) ;
#223 = EDGE_CURVE ( 'NONE', #173, #199, #22, .T. ) ;
#224 = PERSON_AND_ORGANIZATION ( #25, #46 ) ;
#225 = VERTEX_POINT ( 'NONE', #167 ) ;
#226 = CC_DESIGN_DATE_AND_TIME_ASSIGNMENT ( #112, #53, ( #93 ) ) ;
#227 = VERTEX_POINT ( 'NONE', #254 ) ;
#228 = CYLINDRICAL_SURFACE ( 'NONE', #198, 2.750000000000000000 ) ;
#229 = DIRECTION ( 'NONE',  ( 0.000000000000000000, 0.000000000000000000, 1.000000000000000000 ) ) ;
#230 = CARTESIAN_POINT ( 'NONE',  ( 0.000000000000000000, 0.000000000000000000, 315.0000000000000000 ) ) ;
#231 = ORIENTED_EDGE ( 'NONE', *, *, #74, .T. ) ;
#232 = DIRECTION ( 'NONE',  ( 1.000000000000000000, 0.000000000000000000, 0.000000000000000000 ) ) ;
#233 = EDGE_CURVE ( 'NONE', #211, #227, #239, .T. ) ;
#234 = ORIENTED_EDGE ( 'NONE', *, *, #217, .F. ) ;
#235 = CIRCLE ( 'NONE', #122, 5.000000000000000000 ) ;
#236 = DIRECTION ( 'NONE',  ( 1.000000000000000000, 0.000000000000000000, 0.000000000000000000 ) ) ;
#237 = ORIENTED_EDGE ( 'NONE', *, *, #255, .T. ) ;
#238 = CARTESIAN_POINT ( 'NONE',  ( 0.000000000000000000, 0.000000000000000000, 0.000000000000000000 ) ) ;
#239 = LINE ( 'NONE', #241, #67 ) ;
#240 = VECTOR ( 'NONE', #43, 1000.000000000000000 ) ;
#241 = CARTESIAN_POINT ( 'NONE',  ( -2.750000000000000000, 0.000000000000000000, 315.0000000000000000 ) ) ;
#242 = DIRECTION ( 'NONE',  ( 0.000000000000000000, 0.000000000000000000, 1.000000000000000000 ) ) ;
#243 = CC_DESIGN_PERSON_AND_ORGANIZATION_ASSIGNMENT ( #253, #221, ( #193 ) ) ;
#244 = EDGE_LOOP ( 'NONE', ( #126, #207, #212, #115 ) ) ;
#245 = CIRCLE ( 'NONE', #140, 2.750000000000000000 ) ;
#246 = DATE_AND_TIME ( #55, #50 ) ;
#247 = ORIENTED_EDGE ( 'NONE', *, *, #217, .T. ) ;
#248 = LINE ( 'NONE', #249, #9 ) ;
#249 = CARTESIAN_POINT ( 'NONE',  ( -5.000000000000000000, 0.000000000000000000, 3.000000000000000000 ) ) ;
#250 = LOCAL_TIME ( 12, 41, 40.00000000000000000, #185 ) ;
#251 = DIRECTION ( 'NONE',  ( 0.000000000000000000, 0.000000000000000000, 1.000000000000000000 ) ) ;
#252 = ORIENTED_EDGE ( 'NONE', *, *, #96, .T. ) ;
#253 = PERSON_AND_ORGANIZATION ( #25, #46 ) ;
#254 = CARTESIAN_POINT ( 'NONE',  ( -2.750000000000000000, 0.000000000000000000, 3.000000000000000000 ) ) ;
#255 = EDGE_CURVE ( 'NONE', #84, #101, #235, .T. ) ;
ENDSEC;
END-ISO-10303-21;
