ISO-10303-21;
HEADER;
FILE_DESCRIPTION (( 'STEP AP203' ),
    '1' );
FILE_NAME ('6949.STEP',
    '2023-02-12T10:46:19',
    ( '' ),
    ( '' ),
    'SwSTEP 2.0',
    'SolidWorks 2019',
    '' );
FILE_SCHEMA (( 'CONFIG_CONTROL_DESIGN' ));
ENDSEC;

DATA;
#1 = ORIENTED_EDGE ( 'NONE', *, *, #210, .T. ) ;
#2 = CYLINDRICAL_SURFACE ( 'NONE', #18, 8.000000000000000000 ) ;
#3 = APPROVAL_PERSON_ORGANIZATION ( #252, #244, #203 ) ;
#4 = LINE ( 'NONE', #52, #190 ) ;
#5 = CC_DESIGN_DATE_AND_TIME_ASSIGNMENT ( #188, #14, ( #221 ) ) ;
#6 = ORIENTED_EDGE ( 'NONE', *, *, #165, .T. ) ;
#7 = APPROVAL_DATE_TIME ( #31, #169 ) ;
#8 = CIRCLE ( 'NONE', #104, 8.000000000000000000 ) ;
#9 = CALENDAR_DATE ( 2023, 12, 2 ) ;
#10 = APPLICATION_CONTEXT ( 'configuration controlled 3d designs of mechanical parts and assemblies' ) ;
#11 = CARTESIAN_POINT ( 'NONE',  ( 0.000000000000000000, 0.000000000000000000, 7.000000000000000000 ) ) ;
#12 = APPROVAL ( #182, 'NEURÈENÝ' ) ;
#13 = DIRECTION ( 'NONE',  ( 1.000000000000000000, 0.000000000000000000, 0.000000000000000000 ) ) ;
#14 = DATE_TIME_ROLE ( 'classification_date' ) ;
#15 = EDGE_CURVE ( 'NONE', #152, #47, #8, .T. ) ;
#16 = ORIENTED_EDGE ( 'NONE', *, *, #254, .T. ) ;
#17 = CIRCLE ( 'NONE', #158, 8.000000000000000000 ) ;
#18 = AXIS2_PLACEMENT_3D ( 'NONE', #176, #236, #118 ) ;
#19 = CC_DESIGN_APPROVAL ( #12, ( #229 ) ) ;
#20 = DIRECTION ( 'NONE',  ( -0.000000000000000000, -0.000000000000000000, -1.000000000000000000 ) ) ;
#21 = CALENDAR_DATE ( 2023, 12, 2 ) ;
#22 = DIRECTION ( 'NONE',  ( -0.000000000000000000, -0.000000000000000000, -1.000000000000000000 ) ) ;
#23 = FACE_OUTER_BOUND ( 'NONE', #30, .T. ) ;
#24 = EDGE_CURVE ( 'NONE', #152, #110, #144, .T. ) ;
#25 = DIRECTION ( 'NONE',  ( 0.000000000000000000, 0.000000000000000000, 1.000000000000000000 ) ) ;
#26 = FACE_OUTER_BOUND ( 'NONE', #91, .T. ) ;
#27 = MANIFOLD_SOLID_BREP ( 'Pøidat vysunutím3', #33 ) ;
#28 = AXIS2_PLACEMENT_3D ( 'NONE', #214, #161, #49 ) ;
#29 = CYLINDRICAL_SURFACE ( 'NONE', #34, 11.00000000000000000 ) ;
#30 = EDGE_LOOP ( 'NONE', ( #112, #222, #32, #58 ) ) ;
#31 = DATE_AND_TIME ( #21, #62 ) ;
#32 = ORIENTED_EDGE ( 'NONE', *, *, #95, .T. ) ;
#33 = CLOSED_SHELL ( 'NONE', ( #70, #185, #56, #64, #50, #116, #109 ) ) ;
#34 = AXIS2_PLACEMENT_3D ( 'NONE', #160, #68, #241 ) ;
#35 =( NAMED_UNIT ( * ) PLANE_ANGLE_UNIT ( ) SI_UNIT ( $, .RADIAN. ) );
#36 = ORIENTED_EDGE ( 'NONE', *, *, #223, .T. ) ;
#37 = DIRECTION ( 'NONE',  ( 0.000000000000000000, 0.000000000000000000, 1.000000000000000000 ) ) ;
#38 = CC_DESIGN_SECURITY_CLASSIFICATION ( #221, ( #83 ) ) ;
#39 = COORDINATED_UNIVERSAL_TIME_OFFSET ( 1, 0, .AHEAD. ) ;
#40 = APPROVAL_ROLE ( '' ) ;
#41 = FACE_OUTER_BOUND ( 'NONE', #212, .T. ) ;
#42 = DIRECTION ( 'NONE',  ( 1.000000000000000000, 0.000000000000000000, -0.000000000000000000 ) ) ;
#43 = CARTESIAN_POINT ( 'NONE',  ( -8.000000000000000000, 0.000000000000000000, 125.0000000000000000 ) ) ;
#44 = VECTOR ( 'NONE', #86, 1000.000000000000000 ) ;
#45 = CC_DESIGN_APPROVAL ( #169, ( #221 ) ) ;
#46 = DIRECTION ( 'NONE',  ( 1.000000000000000000, 0.000000000000000000, 0.000000000000000000 ) ) ;
#47 = VERTEX_POINT ( 'NONE', #151 ) ;
#48 = CARTESIAN_POINT ( 'NONE',  ( 0.000000000000000000, 0.000000000000000000, 125.0000000000000000 ) ) ;
#49 = DIRECTION ( 'NONE',  ( 1.000000000000000000, 0.000000000000000000, 0.000000000000000000 ) ) ;
#50 = ADVANCED_FACE ( 'NONE', ( #41 ), #235, .F. ) ;
#51 = ORIENTED_EDGE ( 'NONE', *, *, #24, .F. ) ;
#52 = CARTESIAN_POINT ( 'NONE',  ( 11.00000000000000000, 1.347111479062088405E-15, 7.000000000000000000 ) ) ;
#53 = PERSON_AND_ORGANIZATION ( #195, #250 ) ;
#54 = VERTEX_POINT ( 'NONE', #129 ) ;
#55 = APPROVAL_DATE_TIME ( #227, #244 ) ;
#56 = ADVANCED_FACE ( 'NONE', ( #117 ), #194, .T. ) ;
#57 = LOCAL_TIME ( 11, 46, 19.00000000000000000, #39 ) ;
#58 = ORIENTED_EDGE ( 'NONE', *, *, #102, .F. ) ;
#59 = SECURITY_CLASSIFICATION_LEVEL ( 'unclassified' ) ;
#60 = EDGE_CURVE ( 'NONE', #54, #246, #82, .T. ) ;
#61 = DIRECTION ( 'NONE',  ( 0.000000000000000000, 0.000000000000000000, 1.000000000000000000 ) ) ;
#62 = LOCAL_TIME ( 11, 46, 19.00000000000000000, #115 ) ;
#63 = DIRECTION ( 'NONE',  ( 0.000000000000000000, 0.000000000000000000, 1.000000000000000000 ) ) ;
#64 = ADVANCED_FACE ( 'NONE', ( #217, #216 ), #198, .T. ) ;
#65 = DIRECTION ( 'NONE',  ( 1.000000000000000000, 0.000000000000000000, -0.000000000000000000 ) ) ;
#66 = CIRCLE ( 'NONE', #233, 11.00000000000000000 ) ;
#67 = ORIENTED_EDGE ( 'NONE', *, *, #102, .T. ) ;
#68 = DIRECTION ( 'NONE',  ( -0.000000000000000000, -0.000000000000000000, -1.000000000000000000 ) ) ;
#69 = CARTESIAN_POINT ( 'NONE',  ( 0.000000000000000000, 0.000000000000000000, 125.0000000000000000 ) ) ;
#70 = ADVANCED_FACE ( 'NONE', ( #23 ), #220, .T. ) ;
#71 = DIRECTION ( 'NONE',  ( 0.000000000000000000, 0.000000000000000000, 1.000000000000000000 ) ) ;
#72 = COORDINATED_UNIVERSAL_TIME_OFFSET ( 1, 0, .AHEAD. ) ;
#73 = SHAPE_DEFINITION_REPRESENTATION ( #78, #143 ) ;
#74 = DIRECTION ( 'NONE',  ( 1.000000000000000000, 0.000000000000000000, 0.000000000000000000 ) ) ;
#75 = APPROVAL_DATE_TIME ( #77, #12 ) ;
#76 =( GEOMETRIC_REPRESENTATION_CONTEXT ( 3 ) GLOBAL_UNCERTAINTY_ASSIGNED_CONTEXT ( ( #208 ) ) GLOBAL_UNIT_ASSIGNED_CONTEXT ( ( #94, #35, #141 ) ) REPRESENTATION_CONTEXT ( 'NONE', 'WORKASPACE' ) );
#77 = DATE_AND_TIME ( #247, #234 ) ;
#78 = PRODUCT_DEFINITION_SHAPE ( 'NONE', 'NONE',  #229 ) ;
#79 = CC_DESIGN_PERSON_AND_ORGANIZATION_ASSIGNMENT ( #127, #209, ( #83 ) ) ;
#80 = ORIENTED_EDGE ( 'NONE', *, *, #60, .T. ) ;
#81 = CALENDAR_DATE ( 2023, 12, 2 ) ;
#82 = CIRCLE ( 'NONE', #206, 11.00000000000000000 ) ;
#83 = PRODUCT_DEFINITION_FORMATION_WITH_SPECIFIED_SOURCE ( 'LIBOVOLNÝ', '', #253, .NOT_KNOWN. ) ;
#84 = CARTESIAN_POINT ( 'NONE',  ( 11.00000000000000000, 1.347111479062088405E-15, 7.000000000000000000 ) ) ;
#85 = CARTESIAN_POINT ( 'NONE',  ( -11.00000000000000000, 0.000000000000000000, 7.000000000000000000 ) ) ;
#86 = DIRECTION ( 'NONE',  ( -0.000000000000000000, -0.000000000000000000, -1.000000000000000000 ) ) ;
#87 = ORIENTED_EDGE ( 'NONE', *, *, #175, .F. ) ;
#88 = ORIENTED_EDGE ( 'NONE', *, *, #175, .T. ) ;
#89 = DIRECTION ( 'NONE',  ( -1.000000000000000000, 0.000000000000000000, 0.000000000000000000 ) ) ;
#90 = PERSON_AND_ORGANIZATION_ROLE ( 'design_owner' ) ;
#91 = EDGE_LOOP ( 'NONE', ( #87, #6, #80, #231 ) ) ;
#92 = VERTEX_POINT ( 'NONE', #84 ) ;
#93 = CARTESIAN_POINT ( 'NONE',  ( 0.000000000000000000, 0.000000000000000000, 7.000000000000000000 ) ) ;
#94 =( LENGTH_UNIT ( ) NAMED_UNIT ( * ) SI_UNIT ( .MILLI., .METRE. ) );
#95 = EDGE_CURVE ( 'NONE', #110, #240, #156, .T. ) ;
#96 = ORIENTED_EDGE ( 'NONE', *, *, #137, .T. ) ;
#97 = AXIS2_PLACEMENT_3D ( 'NONE', #93, #167, #189 ) ;
#98 = PRODUCT_RELATED_PRODUCT_CATEGORY ( 'detail', '', ( #253 ) ) ;
#99 = DIRECTION ( 'NONE',  ( 0.000000000000000000, 0.000000000000000000, 1.000000000000000000 ) ) ;
#100 = CARTESIAN_POINT ( 'NONE',  ( 8.000000000000000000, 9.797174393178825657E-16, 7.000000000000000000 ) ) ;
#101 = DIRECTION ( 'NONE',  ( -0.000000000000000000, -0.000000000000000000, -1.000000000000000000 ) ) ;
#102 = EDGE_CURVE ( 'NONE', #47, #240, #243, .T. ) ;
#103 = DIRECTION ( 'NONE',  ( -0.000000000000000000, -0.000000000000000000, -1.000000000000000000 ) ) ;
#104 = AXIS2_PLACEMENT_3D ( 'NONE', #191, #61, #213 ) ;
#105 = AXIS2_PLACEMENT_3D ( 'NONE', #181, #146, #13 ) ;
#106 = ORIENTED_EDGE ( 'NONE', *, *, #165, .F. ) ;
#107 = CARTESIAN_POINT ( 'NONE',  ( 0.000000000000000000, 0.000000000000000000, 0.000000000000000000 ) ) ;
#108 = CALENDAR_DATE ( 2023, 12, 2 ) ;
#109 = ADVANCED_FACE ( 'NONE', ( #177 ), #200, .T. ) ;
#110 = VERTEX_POINT ( 'NONE', #100 ) ;
#111 = DATE_TIME_ROLE ( 'creation_date' ) ;
#112 = ORIENTED_EDGE ( 'NONE', *, *, #15, .F. ) ;
#113 = PERSON_AND_ORGANIZATION ( #195, #250 ) ;
#114 = ORIENTED_EDGE ( 'NONE', *, *, #60, .F. ) ;
#115 = COORDINATED_UNIVERSAL_TIME_OFFSET ( 1, 0, .AHEAD. ) ;
#116 = ADVANCED_FACE ( 'NONE', ( #124 ), #2, .T. ) ;
#117 = FACE_OUTER_BOUND ( 'NONE', #135, .T. ) ;
#118 = DIRECTION ( 'NONE',  ( -1.000000000000000000, 0.000000000000000000, 0.000000000000000000 ) ) ;
#119 = CIRCLE ( 'NONE', #162, 11.00000000000000000 ) ;
#120 = ORIENTED_EDGE ( 'NONE', *, *, #95, .F. ) ;
#121 = EDGE_LOOP ( 'NONE', ( #1, #205 ) ) ;
#122 = ORIENTED_EDGE ( 'NONE', *, *, #142, .T. ) ;
#123 = DIRECTION ( 'NONE',  ( 1.000000000000000000, 0.000000000000000000, -0.000000000000000000 ) ) ;
#124 = FACE_OUTER_BOUND ( 'NONE', #225, .T. ) ;
#125 = COORDINATED_UNIVERSAL_TIME_OFFSET ( 1, 0, .AHEAD. ) ;
#126 = PERSON_AND_ORGANIZATION ( #195, #250 ) ;
#127 = PERSON_AND_ORGANIZATION ( #195, #250 ) ;
#128 = CARTESIAN_POINT ( 'NONE',  ( -11.00000000000000000, 0.000000000000000000, 7.000000000000000000 ) ) ;
#129 = CARTESIAN_POINT ( 'NONE',  ( 11.00000000000000000, 1.347111479062088405E-15, 0.000000000000000000 ) ) ;
#130 = AXIS2_PLACEMENT_3D ( 'NONE', #48, #103, #89 ) ;
#131 = APPROVAL_PERSON_ORGANIZATION ( #149, #169, #40 ) ;
#132 = CARTESIAN_POINT ( 'NONE',  ( 0.000000000000000000, 0.000000000000000000, 7.000000000000000000 ) ) ;
#133 = CC_DESIGN_PERSON_AND_ORGANIZATION_ASSIGNMENT ( #53, #228, ( #229 ) ) ;
#134 = DIRECTION ( 'NONE',  ( 1.000000000000000000, 0.000000000000000000, 0.000000000000000000 ) ) ;
#135 = EDGE_LOOP ( 'NONE', ( #106, #164, #96, #36 ) ) ;
#136 = DIRECTION ( 'NONE',  ( 1.000000000000000000, 0.000000000000000000, 0.000000000000000000 ) ) ;
#137 = EDGE_CURVE ( 'NONE', #242, #246, #197, .T. ) ;
#138 = DIRECTION ( 'NONE',  ( 0.000000000000000000, 0.000000000000000000, 1.000000000000000000 ) ) ;
#139 = APPROVAL_PERSON_ORGANIZATION ( #224, #12, #166 ) ;
#140 = APPROVAL_STATUS ( 'not_yet_approved' ) ;
#141 =( NAMED_UNIT ( * ) SI_UNIT ( $, .STERADIAN. ) SOLID_ANGLE_UNIT ( ) );
#142 = EDGE_CURVE ( 'NONE', #242, #92, #145, .T. ) ;
#143 = ADVANCED_BREP_SHAPE_REPRESENTATION ( '6949', ( #27, #105 ), #76 ) ;
#144 = LINE ( 'NONE', #172, #249 ) ;
#145 = CIRCLE ( 'NONE', #207, 11.00000000000000000 ) ;
#146 = DIRECTION ( 'NONE',  ( 0.000000000000000000, 0.000000000000000000, 1.000000000000000000 ) ) ;
#147 = APPLICATION_CONTEXT ( 'configuration controlled 3d designs of mechanical parts and assemblies' ) ;
#148 = COORDINATED_UNIVERSAL_TIME_OFFSET ( 1, 0, .AHEAD. ) ;
#149 = PERSON_AND_ORGANIZATION ( #195, #250 ) ;
#150 = CC_DESIGN_PERSON_AND_ORGANIZATION_ASSIGNMENT ( #192, #171, ( #83 ) ) ;
#151 = CARTESIAN_POINT ( 'NONE',  ( -8.000000000000000000, 0.000000000000000000, 125.0000000000000000 ) ) ;
#152 = VERTEX_POINT ( 'NONE', #155 ) ;
#153 = DIRECTION ( 'NONE',  ( 1.000000000000000000, 0.000000000000000000, 0.000000000000000000 ) ) ;
#154 = CC_DESIGN_DATE_AND_TIME_ASSIGNMENT ( #204, #111, ( #229 ) ) ;
#155 = CARTESIAN_POINT ( 'NONE',  ( 8.000000000000000000, 9.797174393178825657E-16, 125.0000000000000000 ) ) ;
#156 = CIRCLE ( 'NONE', #28, 8.000000000000000000 ) ;
#157 = CARTESIAN_POINT ( 'NONE',  ( 0.000000000000000000, 0.000000000000000000, 7.000000000000000000 ) ) ;
#158 = AXIS2_PLACEMENT_3D ( 'NONE', #11, #37, #74 ) ;
#159 = LOCAL_TIME ( 11, 46, 19.00000000000000000, #148 ) ;
#160 = CARTESIAN_POINT ( 'NONE',  ( 0.000000000000000000, 0.000000000000000000, 7.000000000000000000 ) ) ;
#161 = DIRECTION ( 'NONE',  ( 0.000000000000000000, 0.000000000000000000, 1.000000000000000000 ) ) ;
#162 = AXIS2_PLACEMENT_3D ( 'NONE', #157, #237, #239 ) ;
#163 = EDGE_LOOP ( 'NONE', ( #122, #88 ) ) ;
#164 = ORIENTED_EDGE ( 'NONE', *, *, #142, .F. ) ;
#165 = EDGE_CURVE ( 'NONE', #92, #54, #4, .T. ) ;
#166 = APPROVAL_ROLE ( '' ) ;
#167 = DIRECTION ( 'NONE',  ( -0.000000000000000000, -0.000000000000000000, -1.000000000000000000 ) ) ;
#168 = APPLICATION_PROTOCOL_DEFINITION ( 'international standard', 'config_control_design', 1994, #147 ) ;
#169 = APPROVAL ( #211, 'NEURÈENÝ' ) ;
#170 = DESIGN_CONTEXT ( 'detailed design', #10, 'design' ) ;
#171 = PERSON_AND_ORGANIZATION_ROLE ( 'design_supplier' ) ;
#172 = CARTESIAN_POINT ( 'NONE',  ( 8.000000000000000000, 9.797174393178825657E-16, 125.0000000000000000 ) ) ;
#173 = AXIS2_PLACEMENT_3D ( 'NONE', #193, #63, #42 ) ;
#174 = AXIS2_PLACEMENT_3D ( 'NONE', #69, #99, #136 ) ;
#175 = EDGE_CURVE ( 'NONE', #92, #242, #119, .T. ) ;
#176 = CARTESIAN_POINT ( 'NONE',  ( 0.000000000000000000, 0.000000000000000000, 125.0000000000000000 ) ) ;
#177 = FACE_OUTER_BOUND ( 'NONE', #121, .T. ) ;
#178 = CARTESIAN_POINT ( 'NONE',  ( 0.000000000000000000, 0.000000000000000000, 125.0000000000000000 ) ) ;
#179 = CC_DESIGN_PERSON_AND_ORGANIZATION_ASSIGNMENT ( #113, #230, ( #221 ) ) ;
#180 = CARTESIAN_POINT ( 'NONE',  ( 0.000000000000000000, 0.000000000000000000, 7.000000000000000000 ) ) ;
#181 = CARTESIAN_POINT ( 'NONE',  ( 0.000000000000000000, 0.000000000000000000, 0.000000000000000000 ) ) ;
#182 = APPROVAL_STATUS ( 'not_yet_approved' ) ;
#183 = CC_DESIGN_PERSON_AND_ORGANIZATION_ASSIGNMENT ( #126, #90, ( #253 ) ) ;
#184 = CARTESIAN_POINT ( 'NONE',  ( -11.00000000000000000, 0.000000000000000000, 0.000000000000000000 ) ) ;
#185 = ADVANCED_FACE ( 'NONE', ( #26 ), #29, .T. ) ;
#186 = MECHANICAL_CONTEXT ( 'NONE', #147, 'mechanical' ) ;
#187 = CC_DESIGN_APPROVAL ( #244, ( #83 ) ) ;
#188 = DATE_AND_TIME ( #81, #57 ) ;
#189 = DIRECTION ( 'NONE',  ( -1.000000000000000000, 0.000000000000000000, 0.000000000000000000 ) ) ;
#190 = VECTOR ( 'NONE', #22, 1000.000000000000000 ) ;
#191 = CARTESIAN_POINT ( 'NONE',  ( 0.000000000000000000, 0.000000000000000000, 125.0000000000000000 ) ) ;
#192 = PERSON_AND_ORGANIZATION ( #195, #250 ) ;
#193 = CARTESIAN_POINT ( 'NONE',  ( 0.000000000000000000, 0.000000000000000000, 0.000000000000000000 ) ) ;
#194 = CYLINDRICAL_SURFACE ( 'NONE', #97, 11.00000000000000000 ) ;
#195 = PERSON ( 'NEURÈENÝ', 'NEURÈENÝ', 'NEURÈENÝ', ('NEURÈENÝ'), ('NEURÈENÝ'), ('NEURÈENÝ') ) ;
#196 = CIRCLE ( 'NONE', #174, 8.000000000000000000 ) ;
#197 = LINE ( 'NONE', #85, #44 ) ;
#198 = PLANE ( 'NONE',  #238 ) ;
#199 = ORIENTED_EDGE ( 'NONE', *, *, #210, .F. ) ;
#200 = PLANE ( 'NONE',  #232 ) ;
#201 = DIRECTION ( 'NONE',  ( 0.000000000000000000, 0.000000000000000000, 1.000000000000000000 ) ) ;
#202 = ORIENTED_EDGE ( 'NONE', *, *, #223, .F. ) ;
#203 = APPROVAL_ROLE ( '' ) ;
#204 = DATE_AND_TIME ( #108, #159 ) ;
#205 = ORIENTED_EDGE ( 'NONE', *, *, #15, .T. ) ;
#206 = AXIS2_PLACEMENT_3D ( 'NONE', #215, #201, #46 ) ;
#207 = AXIS2_PLACEMENT_3D ( 'NONE', #180, #138, #134 ) ;
#208 = UNCERTAINTY_MEASURE_WITH_UNIT (LENGTH_MEASURE( 1.000000000000000082E-05 ), #94, 'distance_accuracy_value', 'NONE');
#209 = PERSON_AND_ORGANIZATION_ROLE ( 'creator' ) ;
#210 = EDGE_CURVE ( 'NONE', #47, #152, #196, .T. ) ;
#211 = APPROVAL_STATUS ( 'not_yet_approved' ) ;
#212 = EDGE_LOOP ( 'NONE', ( #202, #114 ) ) ;
#213 = DIRECTION ( 'NONE',  ( 1.000000000000000000, 0.000000000000000000, 0.000000000000000000 ) ) ;
#214 = CARTESIAN_POINT ( 'NONE',  ( 0.000000000000000000, 0.000000000000000000, 7.000000000000000000 ) ) ;
#215 = CARTESIAN_POINT ( 'NONE',  ( 0.000000000000000000, 0.000000000000000000, 0.000000000000000000 ) ) ;
#216 = FACE_OUTER_BOUND ( 'NONE', #163, .T. ) ;
#217 = FACE_BOUND ( 'NONE', #218, .T. ) ;
#218 = EDGE_LOOP ( 'NONE', ( #226, #120 ) ) ;
#219 = VECTOR ( 'NONE', #101, 1000.000000000000000 ) ;
#220 = CYLINDRICAL_SURFACE ( 'NONE', #130, 8.000000000000000000 ) ;
#221 = SECURITY_CLASSIFICATION ( '', '', #59 ) ;
#222 = ORIENTED_EDGE ( 'NONE', *, *, #24, .T. ) ;
#223 = EDGE_CURVE ( 'NONE', #246, #54, #66, .T. ) ;
#224 = PERSON_AND_ORGANIZATION ( #195, #250 ) ;
#225 = EDGE_LOOP ( 'NONE', ( #51, #199, #67, #16 ) ) ;
#226 = ORIENTED_EDGE ( 'NONE', *, *, #254, .F. ) ;
#227 = DATE_AND_TIME ( #9, #251 ) ;
#228 = PERSON_AND_ORGANIZATION_ROLE ( 'creator' ) ;
#229 = PRODUCT_DEFINITION ( 'NEZNÁMÝ', '', #83, #170 ) ;
#230 = PERSON_AND_ORGANIZATION_ROLE ( 'classification_officer' ) ;
#231 = ORIENTED_EDGE ( 'NONE', *, *, #137, .F. ) ;
#232 = AXIS2_PLACEMENT_3D ( 'NONE', #178, #71, #123 ) ;
#233 = AXIS2_PLACEMENT_3D ( 'NONE', #107, #255, #153 ) ;
#234 = LOCAL_TIME ( 11, 46, 19.00000000000000000, #72 ) ;
#235 = PLANE ( 'NONE',  #173 ) ;
#236 = DIRECTION ( 'NONE',  ( -0.000000000000000000, -0.000000000000000000, -1.000000000000000000 ) ) ;
#237 = DIRECTION ( 'NONE',  ( 0.000000000000000000, 0.000000000000000000, 1.000000000000000000 ) ) ;
#238 = AXIS2_PLACEMENT_3D ( 'NONE', #132, #25, #65 ) ;
#239 = DIRECTION ( 'NONE',  ( 1.000000000000000000, 0.000000000000000000, 0.000000000000000000 ) ) ;
#240 = VERTEX_POINT ( 'NONE', #245 ) ;
#241 = DIRECTION ( 'NONE',  ( -1.000000000000000000, 0.000000000000000000, 0.000000000000000000 ) ) ;
#242 = VERTEX_POINT ( 'NONE', #128 ) ;
#243 = LINE ( 'NONE', #43, #219 ) ;
#244 = APPROVAL ( #140, 'NEURÈENÝ' ) ;
#245 = CARTESIAN_POINT ( 'NONE',  ( -8.000000000000000000, 0.000000000000000000, 7.000000000000000000 ) ) ;
#246 = VERTEX_POINT ( 'NONE', #184 ) ;
#247 = CALENDAR_DATE ( 2023, 12, 2 ) ;
#248 = APPLICATION_PROTOCOL_DEFINITION ( 'international standard', 'config_control_design', 1994, #10 ) ;
#249 = VECTOR ( 'NONE', #20, 1000.000000000000000 ) ;
#250 = ORGANIZATION ( 'NEURÈENÝ', 'NEURÈENÝ', '' ) ;
#251 = LOCAL_TIME ( 11, 46, 19.00000000000000000, #125 ) ;
#252 = PERSON_AND_ORGANIZATION ( #195, #250 ) ;
#253 = PRODUCT ( '6949', '6949', '', ( #186 ) ) ;
#254 = EDGE_CURVE ( 'NONE', #240, #110, #17, .T. ) ;
#255 = DIRECTION ( 'NONE',  ( 0.000000000000000000, 0.000000000000000000, 1.000000000000000000 ) ) ;
ENDSEC;
END-ISO-10303-21;
