ISO-10303-21;
HEADER;
FILE_DESCRIPTION (( 'STEP AP203' ),
    '1' );
FILE_NAME ('1239.STEP',
    '2023-02-12T11:22:38',
    ( '' ),
    ( '' ),
    'SwSTEP 2.0',
    'SolidWorks 2019',
    '' );
FILE_SCHEMA (( 'CONFIG_CONTROL_DESIGN' ));
ENDSEC;

DATA;
#1 = PLANE ( 'NONE',  #85 ) ;
#2 = PRODUCT ( '1239', '1239', '', ( #55 ) ) ;
#3 = APPROVAL_STATUS ( 'not_yet_approved' ) ;
#4 = ORIENTED_EDGE ( 'NONE', *, *, #140, .F. ) ;
#5 = ORIENTED_EDGE ( 'NONE', *, *, #151, .F. ) ;
#6 = AXIS2_PLACEMENT_3D ( 'NONE', #123, #207, #63 ) ;
#7 = COORDINATED_UNIVERSAL_TIME_OFFSET ( 1, 0, .AHEAD. ) ;
#8 = DIRECTION ( 'NONE',  ( 0.000000000000000000, 0.000000000000000000, 1.000000000000000000 ) ) ;
#9 = PERSON ( 'NEURÈENÝ', 'NEURÈENÝ', 'NEURÈENÝ', ('NEURÈENÝ'), ('NEURÈENÝ'), ('NEURÈENÝ') ) ;
#10 = DATE_AND_TIME ( #38, #172 ) ;
#11 = DIRECTION ( 'NONE',  ( -0.000000000000000000, -0.000000000000000000, -1.000000000000000000 ) ) ;
#12 = DIRECTION ( 'NONE',  ( 1.000000000000000000, 0.000000000000000000, -0.000000000000000000 ) ) ;
#13 = CARTESIAN_POINT ( 'NONE',  ( 6.000000000000000888, 7.347880794884120722E-16, 5.000000000000000000 ) ) ;
#14 = PERSON_AND_ORGANIZATION_ROLE ( 'classification_officer' ) ;
#15 = ADVANCED_FACE ( 'NONE', ( #161 ), #163, .T. ) ;
#16 = LOCAL_TIME ( 12, 22, 38.00000000000000000, #251 ) ;
#17 =( LENGTH_UNIT ( ) NAMED_UNIT ( * ) SI_UNIT ( .MILLI., .METRE. ) );
#18 = CARTESIAN_POINT ( 'NONE',  ( 0.000000000000000000, 0.000000000000000000, 500.0000000000000000 ) ) ;
#19 = CARTESIAN_POINT ( 'NONE',  ( 3.500000000000000000, 4.286263797015736595E-16, 5.000000000000000000 ) ) ;
#20 = CARTESIAN_POINT ( 'NONE',  ( 0.000000000000000000, 0.000000000000000000, 0.000000000000000000 ) ) ;
#21 = DIRECTION ( 'NONE',  ( -1.000000000000000000, 0.000000000000000000, 0.000000000000000000 ) ) ;
#22 = ORIENTED_EDGE ( 'NONE', *, *, #36, .F. ) ;
#23 = ORIENTED_EDGE ( 'NONE', *, *, #170, .T. ) ;
#24 = ORIENTED_EDGE ( 'NONE', *, *, #139, .F. ) ;
#25 = FACE_OUTER_BOUND ( 'NONE', #217, .T. ) ;
#26 = EDGE_CURVE ( 'NONE', #252, #179, #210, .T. ) ;
#27 = EDGE_LOOP ( 'NONE', ( #92, #138 ) ) ;
#28 = AXIS2_PLACEMENT_3D ( 'NONE', #20, #49, #96 ) ;
#29 = DIRECTION ( 'NONE',  ( 1.000000000000000000, 0.000000000000000000, 0.000000000000000000 ) ) ;
#30 = DIRECTION ( 'NONE',  ( 1.000000000000000000, 0.000000000000000000, 0.000000000000000000 ) ) ;
#31 = APPROVAL_PERSON_ORGANIZATION ( #75, #118, #72 ) ;
#32 = DATE_TIME_ROLE ( 'classification_date' ) ;
#33 = APPLICATION_CONTEXT ( 'configuration controlled 3d designs of mechanical parts and assemblies' ) ;
#34 = SECURITY_CLASSIFICATION_LEVEL ( 'unclassified' ) ;
#35 = PRODUCT_RELATED_PRODUCT_CATEGORY ( 'detail', '', ( #2 ) ) ;
#36 = EDGE_CURVE ( 'NONE', #98, #218, #82, .T. ) ;
#37 = VECTOR ( 'NONE', #229, 1000.000000000000000 ) ;
#38 = CALENDAR_DATE ( 2023, 12, 2 ) ;
#39 = DIRECTION ( 'NONE',  ( 0.000000000000000000, 0.000000000000000000, 1.000000000000000000 ) ) ;
#40 = UNCERTAINTY_MEASURE_WITH_UNIT (LENGTH_MEASURE( 1.000000000000000082E-05 ), #17, 'distance_accuracy_value', 'NONE');
#41 = PERSON_AND_ORGANIZATION_ROLE ( 'design_supplier' ) ;
#42 = CARTESIAN_POINT ( 'NONE',  ( 0.000000000000000000, 0.000000000000000000, 5.000000000000000000 ) ) ;
#43 = ADVANCED_FACE ( 'NONE', ( #167 ), #189, .F. ) ;
#44 = CYLINDRICAL_SURFACE ( 'NONE', #56, 6.000000000000000888 ) ;
#45 = FACE_BOUND ( 'NONE', #79, .T. ) ;
#46 = CIRCLE ( 'NONE', #245, 3.500000000000000000 ) ;
#47 = AXIS2_PLACEMENT_3D ( 'NONE', #174, #255, #71 ) ;
#48 = CC_DESIGN_SECURITY_CLASSIFICATION ( #191, ( #241 ) ) ;
#49 = DIRECTION ( 'NONE',  ( 0.000000000000000000, 0.000000000000000000, 1.000000000000000000 ) ) ;
#50 = EDGE_LOOP ( 'NONE', ( #243, #196 ) ) ;
#51 = CALENDAR_DATE ( 2023, 12, 2 ) ;
#52 = AXIS2_PLACEMENT_3D ( 'NONE', #228, #220, #84 ) ;
#53 = DIRECTION ( 'NONE',  ( 1.000000000000000000, 0.000000000000000000, 0.000000000000000000 ) ) ;
#54 = CARTESIAN_POINT ( 'NONE',  ( -6.000000000000000888, 0.000000000000000000, 5.000000000000000000 ) ) ;
#55 = MECHANICAL_CONTEXT ( 'NONE', #135, 'mechanical' ) ;
#56 = AXIS2_PLACEMENT_3D ( 'NONE', #239, #137, #111 ) ;
#57 = CC_DESIGN_PERSON_AND_ORGANIZATION_ASSIGNMENT ( #190, #14, ( #191 ) ) ;
#58 = FACE_OUTER_BOUND ( 'NONE', #155, .T. ) ;
#59 = FACE_OUTER_BOUND ( 'NONE', #153, .T. ) ;
#60 = CC_DESIGN_APPROVAL ( #118, ( #208 ) ) ;
#61 = ORIENTED_EDGE ( 'NONE', *, *, #151, .T. ) ;
#62 = CYLINDRICAL_SURFACE ( 'NONE', #114, 6.000000000000000888 ) ;
#63 = DIRECTION ( 'NONE',  ( 1.000000000000000000, 0.000000000000000000, 0.000000000000000000 ) ) ;
#64 = CALENDAR_DATE ( 2023, 12, 2 ) ;
#65 = CARTESIAN_POINT ( 'NONE',  ( 0.000000000000000000, 0.000000000000000000, 0.000000000000000000 ) ) ;
#66 = DATE_AND_TIME ( #166, #206 ) ;
#67 = CARTESIAN_POINT ( 'NONE',  ( 0.000000000000000000, 0.000000000000000000, 0.000000000000000000 ) ) ;
#68 = AXIS2_PLACEMENT_3D ( 'NONE', #67, #39, #12 ) ;
#69 = CC_DESIGN_APPROVAL ( #73, ( #191 ) ) ;
#70 = LOCAL_TIME ( 12, 22, 38.00000000000000000, #148 ) ;
#71 = DIRECTION ( 'NONE',  ( 1.000000000000000000, 0.000000000000000000, 0.000000000000000000 ) ) ;
#72 = APPROVAL_ROLE ( '' ) ;
#73 = APPROVAL ( #223, 'NEURÈENÝ' ) ;
#74 = AXIS2_PLACEMENT_3D ( 'NONE', #65, #147, #53 ) ;
#75 = PERSON_AND_ORGANIZATION ( #9, #150 ) ;
#76 = DIRECTION ( 'NONE',  ( -0.000000000000000000, -0.000000000000000000, -1.000000000000000000 ) ) ;
#77 = APPROVAL ( #221, 'NEURÈENÝ' ) ;
#78 = DATE_AND_TIME ( #64, #16 ) ;
#79 = EDGE_LOOP ( 'NONE', ( #249, #97 ) ) ;
#80 = FACE_OUTER_BOUND ( 'NONE', #177, .T. ) ;
#81 = DIRECTION ( 'NONE',  ( -1.000000000000000000, 0.000000000000000000, 0.000000000000000000 ) ) ;
#82 = CIRCLE ( 'NONE', #74, 6.000000000000000888 ) ;
#83 = PERSON_AND_ORGANIZATION ( #9, #150 ) ;
#84 = DIRECTION ( 'NONE',  ( 1.000000000000000000, 0.000000000000000000, -0.000000000000000000 ) ) ;
#85 = AXIS2_PLACEMENT_3D ( 'NONE', #42, #238, #231 ) ;
#86 = DATE_TIME_ROLE ( 'creation_date' ) ;
#87 = ORIENTED_EDGE ( 'NONE', *, *, #194, .T. ) ;
#88 = LINE ( 'NONE', #173, #240 ) ;
#89 =( NAMED_UNIT ( * ) SI_UNIT ( $, .STERADIAN. ) SOLID_ANGLE_UNIT ( ) );
#90 = ORIENTED_EDGE ( 'NONE', *, *, #140, .T. ) ;
#91 = CYLINDRICAL_SURFACE ( 'NONE', #101, 3.500000000000000000 ) ;
#92 = ORIENTED_EDGE ( 'NONE', *, *, #193, .T. ) ;
#93 = DIRECTION ( 'NONE',  ( 0.000000000000000000, 0.000000000000000000, 1.000000000000000000 ) ) ;
#94 = CARTESIAN_POINT ( 'NONE',  ( -3.500000000000000000, 0.000000000000000000, 500.0000000000000000 ) ) ;
#95 = SHAPE_DEFINITION_REPRESENTATION ( #192, #110 ) ;
#96 = DIRECTION ( 'NONE',  ( 1.000000000000000000, 0.000000000000000000, 0.000000000000000000 ) ) ;
#97 = ORIENTED_EDGE ( 'NONE', *, *, #131, .F. ) ;
#98 = VERTEX_POINT ( 'NONE', #169 ) ;
#99 = ORIENTED_EDGE ( 'NONE', *, *, #222, .F. ) ;
#100 = LOCAL_TIME ( 12, 22, 38.00000000000000000, #171 ) ;
#101 = AXIS2_PLACEMENT_3D ( 'NONE', #133, #136, #21 ) ;
#102 = PERSON_AND_ORGANIZATION ( #9, #150 ) ;
#103 = APPROVAL_ROLE ( '' ) ;
#104 = ORIENTED_EDGE ( 'NONE', *, *, #26, .F. ) ;
#105 = DIRECTION ( 'NONE',  ( 0.000000000000000000, 0.000000000000000000, 1.000000000000000000 ) ) ;
#106 = PERSON_AND_ORGANIZATION ( #9, #150 ) ;
#107 = LINE ( 'NONE', #13, #134 ) ;
#108 = APPROVAL_DATE_TIME ( #213, #77 ) ;
#109 = CARTESIAN_POINT ( 'NONE',  ( -6.000000000000000888, 0.000000000000000000, 5.000000000000000000 ) ) ;
#110 = ADVANCED_BREP_SHAPE_REPRESENTATION ( '1239', ( #187, #47 ), #197 ) ;
#111 = DIRECTION ( 'NONE',  ( -1.000000000000000000, 0.000000000000000000, 0.000000000000000000 ) ) ;
#112 = APPROVAL_DATE_TIME ( #78, #73 ) ;
#113 = VERTEX_POINT ( 'NONE', #142 ) ;
#114 = AXIS2_PLACEMENT_3D ( 'NONE', #184, #159, #81 ) ;
#115 = CC_DESIGN_APPROVAL ( #77, ( #241 ) ) ;
#116 = ORIENTED_EDGE ( 'NONE', *, *, #199, .F. ) ;
#117 = DIRECTION ( 'NONE',  ( -1.000000000000000000, 0.000000000000000000, 0.000000000000000000 ) ) ;
#118 = APPROVAL ( #3, 'NEURÈENÝ' ) ;
#119 = AXIS2_PLACEMENT_3D ( 'NONE', #237, #244, #29 ) ;
#120 = CARTESIAN_POINT ( 'NONE',  ( 6.000000000000000888, 7.347880794884120722E-16, 5.000000000000000000 ) ) ;
#121 = CARTESIAN_POINT ( 'NONE',  ( 0.000000000000000000, 0.000000000000000000, 5.000000000000000000 ) ) ;
#122 = CC_DESIGN_DATE_AND_TIME_ASSIGNMENT ( #205, #32, ( #191 ) ) ;
#123 = CARTESIAN_POINT ( 'NONE',  ( 0.000000000000000000, 0.000000000000000000, 5.000000000000000000 ) ) ;
#124 = CIRCLE ( 'NONE', #219, 3.500000000000000000 ) ;
#125 = CLOSED_SHELL ( 'NONE', ( #214, #158, #215, #227, #43, #226, #15 ) ) ;
#126 = APPROVAL_PERSON_ORGANIZATION ( #149, #77, #209 ) ;
#127 = CARTESIAN_POINT ( 'NONE',  ( -3.500000000000000000, 0.000000000000000000, 500.0000000000000000 ) ) ;
#128 = DESIGN_CONTEXT ( 'detailed design', #33, 'design' ) ;
#129 = VECTOR ( 'NONE', #216, 1000.000000000000000 ) ;
#130 = CC_DESIGN_PERSON_AND_ORGANIZATION_ASSIGNMENT ( #83, #41, ( #241 ) ) ;
#131 = EDGE_CURVE ( 'NONE', #246, #186, #144, .T. ) ;
#132 = DIRECTION ( 'NONE',  ( 1.000000000000000000, 0.000000000000000000, 0.000000000000000000 ) ) ;
#133 = CARTESIAN_POINT ( 'NONE',  ( 0.000000000000000000, 0.000000000000000000, 500.0000000000000000 ) ) ;
#134 = VECTOR ( 'NONE', #76, 1000.000000000000000 ) ;
#135 = APPLICATION_CONTEXT ( 'configuration controlled 3d designs of mechanical parts and assemblies' ) ;
#136 = DIRECTION ( 'NONE',  ( -0.000000000000000000, -0.000000000000000000, -1.000000000000000000 ) ) ;
#137 = DIRECTION ( 'NONE',  ( -0.000000000000000000, -0.000000000000000000, -1.000000000000000000 ) ) ;
#138 = ORIENTED_EDGE ( 'NONE', *, *, #222, .T. ) ;
#139 = EDGE_CURVE ( 'NONE', #179, #252, #250, .T. ) ;
#140 = EDGE_CURVE ( 'NONE', #113, #246, #88, .T. ) ;
#141 = APPROVAL_DATE_TIME ( #10, #118 ) ;
#142 = CARTESIAN_POINT ( 'NONE',  ( 3.500000000000000000, 4.286263797015736595E-16, 500.0000000000000000 ) ) ;
#143 = VERTEX_POINT ( 'NONE', #127 ) ;
#144 = CIRCLE ( 'NONE', #6, 3.500000000000000000 ) ;
#145 = PERSON_AND_ORGANIZATION ( #9, #150 ) ;
#146 = PERSON_AND_ORGANIZATION_ROLE ( 'creator' ) ;
#147 = DIRECTION ( 'NONE',  ( 0.000000000000000000, 0.000000000000000000, 1.000000000000000000 ) ) ;
#148 = COORDINATED_UNIVERSAL_TIME_OFFSET ( 1, 0, .AHEAD. ) ;
#149 = PERSON_AND_ORGANIZATION ( #9, #150 ) ;
#150 = ORGANIZATION ( 'NEURÈENÝ', 'NEURÈENÝ', '' ) ;
#151 = EDGE_CURVE ( 'NONE', #179, #218, #107, .T. ) ;
#152 = FACE_OUTER_BOUND ( 'NONE', #50, .T. ) ;
#153 = EDGE_LOOP ( 'NONE', ( #24, #61, #195, #236 ) ) ;
#154 =( NAMED_UNIT ( * ) PLANE_ANGLE_UNIT ( ) SI_UNIT ( $, .RADIAN. ) );
#155 = EDGE_LOOP ( 'NONE', ( #4, #175, #201, #23 ) ) ;
#156 = CIRCLE ( 'NONE', #119, 3.500000000000000000 ) ;
#157 = ORIENTED_EDGE ( 'NONE', *, *, #248, .F. ) ;
#158 = ADVANCED_FACE ( 'NONE', ( #59 ), #62, .T. ) ;
#159 = DIRECTION ( 'NONE',  ( -0.000000000000000000, -0.000000000000000000, -1.000000000000000000 ) ) ;
#160 = EDGE_LOOP ( 'NONE', ( #22, #116 ) ) ;
#161 = FACE_OUTER_BOUND ( 'NONE', #27, .T. ) ;
#162 = PERSON_AND_ORGANIZATION ( #9, #150 ) ;
#163 = PLANE ( 'NONE',  #52 ) ;
#164 = CARTESIAN_POINT ( 'NONE',  ( 0.000000000000000000, 0.000000000000000000, 5.000000000000000000 ) ) ;
#165 = CC_DESIGN_DATE_AND_TIME_ASSIGNMENT ( #66, #86, ( #208 ) ) ;
#166 = CALENDAR_DATE ( 2023, 12, 2 ) ;
#167 = FACE_OUTER_BOUND ( 'NONE', #160, .T. ) ;
#168 = DIRECTION ( 'NONE',  ( 1.000000000000000000, 0.000000000000000000, 0.000000000000000000 ) ) ;
#169 = CARTESIAN_POINT ( 'NONE',  ( -6.000000000000000888, 0.000000000000000000, 0.000000000000000000 ) ) ;
#170 = EDGE_CURVE ( 'NONE', #186, #246, #156, .T. ) ;
#171 = COORDINATED_UNIVERSAL_TIME_OFFSET ( 1, 0, .AHEAD. ) ;
#172 = LOCAL_TIME ( 12, 22, 38.00000000000000000, #7 ) ;
#173 = CARTESIAN_POINT ( 'NONE',  ( 3.500000000000000000, 4.286263797015736595E-16, 500.0000000000000000 ) ) ;
#174 = CARTESIAN_POINT ( 'NONE',  ( 0.000000000000000000, 0.000000000000000000, 0.000000000000000000 ) ) ;
#175 = ORIENTED_EDGE ( 'NONE', *, *, #193, .F. ) ;
#176 = LINE ( 'NONE', #94, #129 ) ;
#177 = EDGE_LOOP ( 'NONE', ( #99, #90, #183, #157 ) ) ;
#178 = CIRCLE ( 'NONE', #28, 6.000000000000000888 ) ;
#179 = VERTEX_POINT ( 'NONE', #120 ) ;
#180 = DIRECTION ( 'NONE',  ( -0.000000000000000000, -0.000000000000000000, -1.000000000000000000 ) ) ;
#181 = ORIENTED_EDGE ( 'NONE', *, *, #36, .T. ) ;
#182 = CYLINDRICAL_SURFACE ( 'NONE', #212, 3.500000000000000000 ) ;
#183 = ORIENTED_EDGE ( 'NONE', *, *, #131, .T. ) ;
#184 = CARTESIAN_POINT ( 'NONE',  ( 0.000000000000000000, 0.000000000000000000, 5.000000000000000000 ) ) ;
#185 = CARTESIAN_POINT ( 'NONE',  ( 0.000000000000000000, 0.000000000000000000, 500.0000000000000000 ) ) ;
#186 = VERTEX_POINT ( 'NONE', #202 ) ;
#187 = MANIFOLD_SOLID_BREP ( 'Pøidat vysunutím3', #125 ) ;
#188 = PERSON_AND_ORGANIZATION_ROLE ( 'creator' ) ;
#189 = PLANE ( 'NONE',  #68 ) ;
#190 = PERSON_AND_ORGANIZATION ( #9, #150 ) ;
#191 = SECURITY_CLASSIFICATION ( '', '', #34 ) ;
#192 = PRODUCT_DEFINITION_SHAPE ( 'NONE', 'NONE',  #208 ) ;
#193 = EDGE_CURVE ( 'NONE', #143, #113, #124, .T. ) ;
#194 = EDGE_CURVE ( 'NONE', #252, #98, #253, .T. ) ;
#195 = ORIENTED_EDGE ( 'NONE', *, *, #199, .T. ) ;
#196 = ORIENTED_EDGE ( 'NONE', *, *, #139, .T. ) ;
#197 =( GEOMETRIC_REPRESENTATION_CONTEXT ( 3 ) GLOBAL_UNCERTAINTY_ASSIGNED_CONTEXT ( ( #40 ) ) GLOBAL_UNIT_ASSIGNED_CONTEXT ( ( #17, #154, #89 ) ) REPRESENTATION_CONTEXT ( 'NONE', 'WORKASPACE' ) );
#198 = CC_DESIGN_PERSON_AND_ORGANIZATION_ASSIGNMENT ( #106, #146, ( #208 ) ) ;
#199 = EDGE_CURVE ( 'NONE', #218, #98, #178, .T. ) ;
#200 = CARTESIAN_POINT ( 'NONE',  ( 6.000000000000000888, 7.347880794884120722E-16, 0.000000000000000000 ) ) ;
#201 = ORIENTED_EDGE ( 'NONE', *, *, #248, .T. ) ;
#202 = CARTESIAN_POINT ( 'NONE',  ( -3.500000000000000000, 0.000000000000000000, 5.000000000000000000 ) ) ;
#203 = DIRECTION ( 'NONE',  ( 0.000000000000000000, 0.000000000000000000, 1.000000000000000000 ) ) ;
#204 = AXIS2_PLACEMENT_3D ( 'NONE', #164, #105, #225 ) ;
#205 = DATE_AND_TIME ( #51, #100 ) ;
#206 = LOCAL_TIME ( 12, 22, 38.00000000000000000, #254 ) ;
#207 = DIRECTION ( 'NONE',  ( 0.000000000000000000, 0.000000000000000000, 1.000000000000000000 ) ) ;
#208 = PRODUCT_DEFINITION ( 'NEZNÁMÝ', '', #241, #128 ) ;
#209 = APPROVAL_ROLE ( '' ) ;
#210 = CIRCLE ( 'NONE', #204, 6.000000000000000888 ) ;
#211 = CC_DESIGN_PERSON_AND_ORGANIZATION_ASSIGNMENT ( #162, #188, ( #241 ) ) ;
#212 = AXIS2_PLACEMENT_3D ( 'NONE', #235, #180, #117 ) ;
#213 = DATE_AND_TIME ( #230, #70 ) ;
#214 = ADVANCED_FACE ( 'NONE', ( #80 ), #182, .T. ) ;
#215 = ADVANCED_FACE ( 'NONE', ( #25 ), #44, .T. ) ;
#216 = DIRECTION ( 'NONE',  ( -0.000000000000000000, -0.000000000000000000, -1.000000000000000000 ) ) ;
#217 = EDGE_LOOP ( 'NONE', ( #5, #104, #87, #181 ) ) ;
#218 = VERTEX_POINT ( 'NONE', #200 ) ;
#219 = AXIS2_PLACEMENT_3D ( 'NONE', #185, #8, #168 ) ;
#220 = DIRECTION ( 'NONE',  ( 0.000000000000000000, 0.000000000000000000, 1.000000000000000000 ) ) ;
#221 = APPROVAL_STATUS ( 'not_yet_approved' ) ;
#222 = EDGE_CURVE ( 'NONE', #113, #143, #46, .T. ) ;
#223 = APPROVAL_STATUS ( 'not_yet_approved' ) ;
#224 = PERSON_AND_ORGANIZATION_ROLE ( 'design_owner' ) ;
#225 = DIRECTION ( 'NONE',  ( 1.000000000000000000, 0.000000000000000000, 0.000000000000000000 ) ) ;
#226 = ADVANCED_FACE ( 'NONE', ( #58 ), #91, .T. ) ;
#227 = ADVANCED_FACE ( 'NONE', ( #45, #152 ), #1, .T. ) ;
#228 = CARTESIAN_POINT ( 'NONE',  ( 0.000000000000000000, 0.000000000000000000, 500.0000000000000000 ) ) ;
#229 = DIRECTION ( 'NONE',  ( -0.000000000000000000, -0.000000000000000000, -1.000000000000000000 ) ) ;
#230 = CALENDAR_DATE ( 2023, 12, 2 ) ;
#231 = DIRECTION ( 'NONE',  ( 1.000000000000000000, 0.000000000000000000, -0.000000000000000000 ) ) ;
#232 = APPLICATION_PROTOCOL_DEFINITION ( 'international standard', 'config_control_design', 1994, #33 ) ;
#233 = APPLICATION_PROTOCOL_DEFINITION ( 'international standard', 'config_control_design', 1994, #135 ) ;
#234 = AXIS2_PLACEMENT_3D ( 'NONE', #121, #203, #30 ) ;
#235 = CARTESIAN_POINT ( 'NONE',  ( 0.000000000000000000, 0.000000000000000000, 500.0000000000000000 ) ) ;
#236 = ORIENTED_EDGE ( 'NONE', *, *, #194, .F. ) ;
#237 = CARTESIAN_POINT ( 'NONE',  ( 0.000000000000000000, 0.000000000000000000, 5.000000000000000000 ) ) ;
#238 = DIRECTION ( 'NONE',  ( 0.000000000000000000, 0.000000000000000000, 1.000000000000000000 ) ) ;
#239 = CARTESIAN_POINT ( 'NONE',  ( 0.000000000000000000, 0.000000000000000000, 5.000000000000000000 ) ) ;
#240 = VECTOR ( 'NONE', #11, 1000.000000000000000 ) ;
#241 = PRODUCT_DEFINITION_FORMATION_WITH_SPECIFIED_SOURCE ( 'LIBOVOLNÝ', '', #2, .NOT_KNOWN. ) ;
#242 = APPROVAL_PERSON_ORGANIZATION ( #102, #73, #103 ) ;
#243 = ORIENTED_EDGE ( 'NONE', *, *, #26, .T. ) ;
#244 = DIRECTION ( 'NONE',  ( 0.000000000000000000, 0.000000000000000000, 1.000000000000000000 ) ) ;
#245 = AXIS2_PLACEMENT_3D ( 'NONE', #18, #93, #132 ) ;
#246 = VERTEX_POINT ( 'NONE', #19 ) ;
#247 = CC_DESIGN_PERSON_AND_ORGANIZATION_ASSIGNMENT ( #145, #224, ( #2 ) ) ;
#248 = EDGE_CURVE ( 'NONE', #143, #186, #176, .T. ) ;
#249 = ORIENTED_EDGE ( 'NONE', *, *, #170, .F. ) ;
#250 = CIRCLE ( 'NONE', #234, 6.000000000000000888 ) ;
#251 = COORDINATED_UNIVERSAL_TIME_OFFSET ( 1, 0, .AHEAD. ) ;
#252 = VERTEX_POINT ( 'NONE', #109 ) ;
#253 = LINE ( 'NONE', #54, #37 ) ;
#254 = COORDINATED_UNIVERSAL_TIME_OFFSET ( 1, 0, .AHEAD. ) ;
#255 = DIRECTION ( 'NONE',  ( 0.000000000000000000, 0.000000000000000000, 1.000000000000000000 ) ) ;
ENDSEC;
END-ISO-10303-21;
