ISO-10303-21;
HEADER;
FILE_DESCRIPTION (( 'STEP AP203' ),
    '1' );
FILE_NAME ('4df4.STEP',
    '2023-02-12T11:11:54',
    ( '' ),
    ( '' ),
    'SwSTEP 2.0',
    'SolidWorks 2019',
    '' );
FILE_SCHEMA (( 'CONFIG_CONTROL_DESIGN' ));
ENDSEC;

DATA;
#1 = CC_DESIGN_DATE_AND_TIME_ASSIGNMENT ( #20, #136, ( #191 ) ) ;
#2 = CYLINDRICAL_SURFACE ( 'NONE', #73, 4.099999999999999645 ) ;
#3 = EDGE_LOOP ( 'NONE', ( #9, #107, #159, #156 ) ) ;
#4 = CARTESIAN_POINT ( 'NONE',  ( 0.000000000000000000, 0.000000000000000000, 5.000000000000000000 ) ) ;
#5 = DIRECTION ( 'NONE',  ( 0.000000000000000000, 0.000000000000000000, 1.000000000000000000 ) ) ;
#6 = PERSON ( 'NEURÈENÝ', 'NEURÈENÝ', 'NEURÈENÝ', ('NEURÈENÝ'), ('NEURÈENÝ'), ('NEURÈENÝ') ) ;
#7 =( GEOMETRIC_REPRESENTATION_CONTEXT ( 3 ) GLOBAL_UNCERTAINTY_ASSIGNED_CONTEXT ( ( #138 ) ) GLOBAL_UNIT_ASSIGNED_CONTEXT ( ( #69, #127, #245 ) ) REPRESENTATION_CONTEXT ( 'NONE', 'WORKASPACE' ) );
#8 = ORIENTED_EDGE ( 'NONE', *, *, #205, .F. ) ;
#9 = ORIENTED_EDGE ( 'NONE', *, *, #209, .F. ) ;
#10 = CARTESIAN_POINT ( 'NONE',  ( 0.000000000000000000, 0.000000000000000000, 5.000000000000000000 ) ) ;
#11 = AXIS2_PLACEMENT_3D ( 'NONE', #47, #51, #105 ) ;
#12 = APPROVAL_DATE_TIME ( #36, #77 ) ;
#13 = CC_DESIGN_DATE_AND_TIME_ASSIGNMENT ( #213, #43, ( #125 ) ) ;
#14 = AXIS2_PLACEMENT_3D ( 'NONE', #68, #189, #188 ) ;
#15 = CARTESIAN_POINT ( 'NONE',  ( 0.000000000000000000, 0.000000000000000000, 0.000000000000000000 ) ) ;
#16 = LOCAL_TIME ( 12, 11, 54.00000000000000000, #170 ) ;
#17 = CARTESIAN_POINT ( 'NONE',  ( 0.000000000000000000, 0.000000000000000000, 5.000000000000000000 ) ) ;
#18 = DIRECTION ( 'NONE',  ( 1.000000000000000000, 0.000000000000000000, -0.000000000000000000 ) ) ;
#19 = AXIS2_PLACEMENT_3D ( 'NONE', #10, #203, #165 ) ;
#20 = DATE_AND_TIME ( #196, #41 ) ;
#21 = SECURITY_CLASSIFICATION_LEVEL ( 'unclassified' ) ;
#22 = APPLICATION_CONTEXT ( 'configuration controlled 3d designs of mechanical parts and assemblies' ) ;
#23 = CARTESIAN_POINT ( 'NONE',  ( -7.000000000000000000, 0.000000000000000000, 0.000000000000000000 ) ) ;
#24 = PERSON_AND_ORGANIZATION_ROLE ( 'classification_officer' ) ;
#25 = EDGE_LOOP ( 'NONE', ( #88, #204, #219, #119 ) ) ;
#26 = AXIS2_PLACEMENT_3D ( 'NONE', #15, #96, #132 ) ;
#27 = ADVANCED_FACE ( 'NONE', ( #162 ), #180, .T. ) ;
#28 = PLANE ( 'NONE',  #160 ) ;
#29 = DIRECTION ( 'NONE',  ( 1.000000000000000000, 0.000000000000000000, 0.000000000000000000 ) ) ;
#30 = LINE ( 'NONE', #109, #217 ) ;
#31 = APPLICATION_CONTEXT ( 'configuration controlled 3d designs of mechanical parts and assemblies' ) ;
#32 = ORIENTED_EDGE ( 'NONE', *, *, #70, .F. ) ;
#33 = DIRECTION ( 'NONE',  ( -1.000000000000000000, 0.000000000000000000, 0.000000000000000000 ) ) ;
#34 = CARTESIAN_POINT ( 'NONE',  ( -7.000000000000000000, 0.000000000000000000, 5.000000000000000000 ) ) ;
#35 = CARTESIAN_POINT ( 'NONE',  ( 0.000000000000000000, 0.000000000000000000, 5.000000000000000000 ) ) ;
#36 = DATE_AND_TIME ( #172, #102 ) ;
#37 = PERSON_AND_ORGANIZATION ( #6, #117 ) ;
#38 = COORDINATED_UNIVERSAL_TIME_OFFSET ( 1, 0, .AHEAD. ) ;
#39 = EDGE_CURVE ( 'NONE', #83, #206, #154, .T. ) ;
#40 = DIRECTION ( 'NONE',  ( 1.000000000000000000, 0.000000000000000000, -0.000000000000000000 ) ) ;
#41 = LOCAL_TIME ( 12, 11, 54.00000000000000000, #99 ) ;
#42 = ADVANCED_FACE ( 'NONE', ( #220 ), #2, .T. ) ;
#43 = DATE_TIME_ROLE ( 'creation_date' ) ;
#44 = APPROVAL ( #231, 'NEURÈENÝ' ) ;
#45 = ORIENTED_EDGE ( 'NONE', *, *, #140, .T. ) ;
#46 = EDGE_CURVE ( 'NONE', #52, #254, #101, .T. ) ;
#47 = CARTESIAN_POINT ( 'NONE',  ( 0.000000000000000000, 0.000000000000000000, 315.0000000000000000 ) ) ;
#48 = CARTESIAN_POINT ( 'NONE',  ( 0.000000000000000000, 0.000000000000000000, 0.000000000000000000 ) ) ;
#49 = ORIENTED_EDGE ( 'NONE', *, *, #184, .F. ) ;
#50 = EDGE_LOOP ( 'NONE', ( #45, #199 ) ) ;
#51 = DIRECTION ( 'NONE',  ( -0.000000000000000000, -0.000000000000000000, -1.000000000000000000 ) ) ;
#52 = VERTEX_POINT ( 'NONE', #146 ) ;
#53 = ORIENTED_EDGE ( 'NONE', *, *, #209, .T. ) ;
#54 = AXIS2_PLACEMENT_3D ( 'NONE', #17, #251, #40 ) ;
#55 = CARTESIAN_POINT ( 'NONE',  ( 7.000000000000000000, 8.572527594031473190E-16, 0.000000000000000000 ) ) ;
#56 = DIRECTION ( 'NONE',  ( -0.000000000000000000, -0.000000000000000000, -1.000000000000000000 ) ) ;
#57 = PERSON_AND_ORGANIZATION ( #6, #117 ) ;
#58 = CC_DESIGN_PERSON_AND_ORGANIZATION_ASSIGNMENT ( #37, #178, ( #250 ) ) ;
#59 = PERSON_AND_ORGANIZATION ( #6, #117 ) ;
#60 = MECHANICAL_CONTEXT ( 'NONE', #31, 'mechanical' ) ;
#61 = CARTESIAN_POINT ( 'NONE',  ( 0.000000000000000000, 0.000000000000000000, 315.0000000000000000 ) ) ;
#62 = PERSON_AND_ORGANIZATION_ROLE ( 'design_owner' ) ;
#63 = CALENDAR_DATE ( 2023, 12, 2 ) ;
#64 = CARTESIAN_POINT ( 'NONE',  ( 0.000000000000000000, 0.000000000000000000, 315.0000000000000000 ) ) ;
#65 = CLOSED_SHELL ( 'NONE', ( #168, #98, #27, #130, #149, #42, #103 ) ) ;
#66 = VECTOR ( 'NONE', #75, 1000.000000000000000 ) ;
#67 = DATE_AND_TIME ( #194, #179 ) ;
#68 = CARTESIAN_POINT ( 'NONE',  ( 0.000000000000000000, 0.000000000000000000, 5.000000000000000000 ) ) ;
#69 =( LENGTH_UNIT ( ) NAMED_UNIT ( * ) SI_UNIT ( .MILLI., .METRE. ) );
#70 = EDGE_CURVE ( 'NONE', #230, #131, #212, .T. ) ;
#71 = EDGE_LOOP ( 'NONE', ( #86, #128 ) ) ;
#72 = ORIENTED_EDGE ( 'NONE', *, *, #233, .F. ) ;
#73 = AXIS2_PLACEMENT_3D ( 'NONE', #244, #182, #33 ) ;
#74 = APPLICATION_PROTOCOL_DEFINITION ( 'international standard', 'config_control_design', 1994, #31 ) ;
#75 = DIRECTION ( 'NONE',  ( -0.000000000000000000, -0.000000000000000000, -1.000000000000000000 ) ) ;
#76 = PERSON_AND_ORGANIZATION ( #6, #117 ) ;
#77 = APPROVAL ( #227, 'NEURÈENÝ' ) ;
#78 = CIRCLE ( 'NONE', #255, 4.099999999999999645 ) ;
#79 = DIRECTION ( 'NONE',  ( 1.000000000000000000, 0.000000000000000000, 0.000000000000000000 ) ) ;
#80 = PRODUCT_DEFINITION_SHAPE ( 'NONE', 'NONE',  #125 ) ;
#81 = AXIS2_PLACEMENT_3D ( 'NONE', #4, #246, #185 ) ;
#82 = CYLINDRICAL_SURFACE ( 'NONE', #11, 4.099999999999999645 ) ;
#83 = VERTEX_POINT ( 'NONE', #55 ) ;
#84 = CARTESIAN_POINT ( 'NONE',  ( 0.000000000000000000, 0.000000000000000000, 5.000000000000000000 ) ) ;
#85 = CARTESIAN_POINT ( 'NONE',  ( 0.000000000000000000, 0.000000000000000000, 315.0000000000000000 ) ) ;
#86 = ORIENTED_EDGE ( 'NONE', *, *, #90, .F. ) ;
#87 = DIRECTION ( 'NONE',  ( 1.000000000000000000, 0.000000000000000000, 0.000000000000000000 ) ) ;
#88 = ORIENTED_EDGE ( 'NONE', *, *, #221, .F. ) ;
#89 = CARTESIAN_POINT ( 'NONE',  ( -4.099999999999999645, 0.000000000000000000, 315.0000000000000000 ) ) ;
#90 = EDGE_CURVE ( 'NONE', #254, #52, #93, .T. ) ;
#91 = EDGE_LOOP ( 'NONE', ( #49, #53, #144, #72 ) ) ;
#92 = ORIENTED_EDGE ( 'NONE', *, *, #171, .T. ) ;
#93 = CIRCLE ( 'NONE', #19, 4.099999999999999645 ) ;
#94 = FACE_BOUND ( 'NONE', #71, .T. ) ;
#95 = CIRCLE ( 'NONE', #223, 7.000000000000000000 ) ;
#96 = DIRECTION ( 'NONE',  ( 0.000000000000000000, 0.000000000000000000, 1.000000000000000000 ) ) ;
#97 = COORDINATED_UNIVERSAL_TIME_OFFSET ( 1, 0, .AHEAD. ) ;
#98 = ADVANCED_FACE ( 'NONE', ( #237 ), #126, .T. ) ;
#99 = COORDINATED_UNIVERSAL_TIME_OFFSET ( 1, 0, .AHEAD. ) ;
#100 = CC_DESIGN_PERSON_AND_ORGANIZATION_ASSIGNMENT ( #59, #208, ( #250 ) ) ;
#101 = CIRCLE ( 'NONE', #81, 4.099999999999999645 ) ;
#102 = LOCAL_TIME ( 12, 11, 54.00000000000000000, #97 ) ;
#103 = ADVANCED_FACE ( 'NONE', ( #202 ), #28, .T. ) ;
#104 = DIRECTION ( 'NONE',  ( 0.000000000000000000, 0.000000000000000000, 1.000000000000000000 ) ) ;
#105 = DIRECTION ( 'NONE',  ( -1.000000000000000000, 0.000000000000000000, 0.000000000000000000 ) ) ;
#106 = CC_DESIGN_APPROVAL ( #114, ( #250 ) ) ;
#107 = ORIENTED_EDGE ( 'NONE', *, *, #140, .F. ) ;
#108 = VERTEX_POINT ( 'NONE', #216 ) ;
#109 = CARTESIAN_POINT ( 'NONE',  ( 7.000000000000000000, 8.572527594031473190E-16, 5.000000000000000000 ) ) ;
#110 = AXIS2_PLACEMENT_3D ( 'NONE', #64, #135, #79 ) ;
#111 = ORIENTED_EDGE ( 'NONE', *, *, #221, .T. ) ;
#112 = LINE ( 'NONE', #243, #157 ) ;
#113 = CC_DESIGN_APPROVAL ( #77, ( #125 ) ) ;
#114 = APPROVAL ( #150, 'NEURÈENÝ' ) ;
#115 = CC_DESIGN_SECURITY_CLASSIFICATION ( #191, ( #250 ) ) ;
#116 = ADVANCED_BREP_SHAPE_REPRESENTATION ( '4df4', ( #235, #26 ), #7 ) ;
#117 = ORGANIZATION ( 'NEURÈENÝ', 'NEURÈENÝ', '' ) ;
#118 = APPROVAL_ROLE ( '' ) ;
#119 = ORIENTED_EDGE ( 'NONE', *, *, #171, .F. ) ;
#120 = DIRECTION ( 'NONE',  ( 1.000000000000000000, 0.000000000000000000, 0.000000000000000000 ) ) ;
#121 = DESIGN_CONTEXT ( 'detailed design', #22, 'design' ) ;
#122 = EDGE_LOOP ( 'NONE', ( #240, #32, #92, #181 ) ) ;
#123 = DIRECTION ( 'NONE',  ( -1.000000000000000000, 0.000000000000000000, 0.000000000000000000 ) ) ;
#124 = LOCAL_TIME ( 12, 11, 54.00000000000000000, #38 ) ;
#125 = PRODUCT_DEFINITION ( 'NEZNÁMÝ', '', #250, #121 ) ;
#126 = CYLINDRICAL_SURFACE ( 'NONE', #239, 7.000000000000000000 ) ;
#127 =( NAMED_UNIT ( * ) PLANE_ANGLE_UNIT ( ) SI_UNIT ( $, .RADIAN. ) );
#128 = ORIENTED_EDGE ( 'NONE', *, *, #46, .F. ) ;
#129 = AXIS2_PLACEMENT_3D ( 'NONE', #48, #252, #120 ) ;
#130 = ADVANCED_FACE ( 'NONE', ( #94, #229 ), #173, .T. ) ;
#131 = VERTEX_POINT ( 'NONE', #155 ) ;
#132 = DIRECTION ( 'NONE',  ( 1.000000000000000000, 0.000000000000000000, 0.000000000000000000 ) ) ;
#133 = CARTESIAN_POINT ( 'NONE',  ( 0.000000000000000000, 0.000000000000000000, 0.000000000000000000 ) ) ;
#134 = CIRCLE ( 'NONE', #129, 7.000000000000000000 ) ;
#135 = DIRECTION ( 'NONE',  ( 0.000000000000000000, 0.000000000000000000, 1.000000000000000000 ) ) ;
#136 = DATE_TIME_ROLE ( 'classification_date' ) ;
#137 = DIRECTION ( 'NONE',  ( 0.000000000000000000, 0.000000000000000000, 1.000000000000000000 ) ) ;
#138 = UNCERTAINTY_MEASURE_WITH_UNIT (LENGTH_MEASURE( 1.000000000000000082E-05 ), #69, 'distance_accuracy_value', 'NONE');
#139 = CARTESIAN_POINT ( 'NONE',  ( -7.000000000000000000, 0.000000000000000000, 5.000000000000000000 ) ) ;
#140 = EDGE_CURVE ( 'NONE', #108, #238, #176, .T. ) ;
#141 = ORIENTED_EDGE ( 'NONE', *, *, #39, .F. ) ;
#142 = FACE_OUTER_BOUND ( 'NONE', #91, .T. ) ;
#143 = VECTOR ( 'NONE', #161, 1000.000000000000000 ) ;
#144 = ORIENTED_EDGE ( 'NONE', *, *, #46, .T. ) ;
#145 = DIRECTION ( 'NONE',  ( 0.000000000000000000, 0.000000000000000000, 1.000000000000000000 ) ) ;
#146 = CARTESIAN_POINT ( 'NONE',  ( 4.099999999999999645, 5.021051876504147385E-16, 5.000000000000000000 ) ) ;
#147 = APPROVAL_PERSON_ORGANIZATION ( #57, #77, #192 ) ;
#148 = CARTESIAN_POINT ( 'NONE',  ( 0.000000000000000000, 0.000000000000000000, 5.000000000000000000 ) ) ;
#149 = ADVANCED_FACE ( 'NONE', ( #151 ), #152, .F. ) ;
#150 = APPROVAL_STATUS ( 'not_yet_approved' ) ;
#151 = FACE_OUTER_BOUND ( 'NONE', #158, .T. ) ;
#152 = PLANE ( 'NONE',  #200 ) ;
#153 = PERSON_AND_ORGANIZATION ( #6, #117 ) ;
#154 = CIRCLE ( 'NONE', #207, 7.000000000000000000 ) ;
#155 = CARTESIAN_POINT ( 'NONE',  ( 7.000000000000000000, 8.572527594031473190E-16, 5.000000000000000000 ) ) ;
#156 = ORIENTED_EDGE ( 'NONE', *, *, #90, .T. ) ;
#157 = VECTOR ( 'NONE', #56, 1000.000000000000000 ) ;
#158 = EDGE_LOOP ( 'NONE', ( #8, #141 ) ) ;
#159 = ORIENTED_EDGE ( 'NONE', *, *, #233, .T. ) ;
#160 = AXIS2_PLACEMENT_3D ( 'NONE', #61, #137, #211 ) ;
#161 = DIRECTION ( 'NONE',  ( -0.000000000000000000, -0.000000000000000000, -1.000000000000000000 ) ) ;
#162 = FACE_OUTER_BOUND ( 'NONE', #122, .T. ) ;
#163 = DIRECTION ( 'NONE',  ( 1.000000000000000000, 0.000000000000000000, 0.000000000000000000 ) ) ;
#164 = AXIS2_PLACEMENT_3D ( 'NONE', #84, #222, #29 ) ;
#165 = DIRECTION ( 'NONE',  ( 1.000000000000000000, 0.000000000000000000, 0.000000000000000000 ) ) ;
#166 = APPROVAL_PERSON_ORGANIZATION ( #218, #44, #197 ) ;
#167 = APPROVAL_DATE_TIME ( #226, #114 ) ;
#168 = ADVANCED_FACE ( 'NONE', ( #142 ), #82, .T. ) ;
#169 = PERSON_AND_ORGANIZATION ( #6, #117 ) ;
#170 = COORDINATED_UNIVERSAL_TIME_OFFSET ( 1, 0, .AHEAD. ) ;
#171 = EDGE_CURVE ( 'NONE', #230, #206, #236, .T. ) ;
#172 = CALENDAR_DATE ( 2023, 12, 2 ) ;
#173 = PLANE ( 'NONE',  #54 ) ;
#174 = APPROVAL_DATE_TIME ( #67, #44 ) ;
#175 = COORDINATED_UNIVERSAL_TIME_OFFSET ( 1, 0, .AHEAD. ) ;
#176 = CIRCLE ( 'NONE', #110, 4.099999999999999645 ) ;
#177 = CC_DESIGN_PERSON_AND_ORGANIZATION_ASSIGNMENT ( #201, #24, ( #191 ) ) ;
#178 = PERSON_AND_ORGANIZATION_ROLE ( 'design_supplier' ) ;
#179 = LOCAL_TIME ( 12, 11, 54.00000000000000000, #175 ) ;
#180 = CYLINDRICAL_SURFACE ( 'NONE', #14, 7.000000000000000000 ) ;
#181 = ORIENTED_EDGE ( 'NONE', *, *, #205, .T. ) ;
#182 = DIRECTION ( 'NONE',  ( -0.000000000000000000, -0.000000000000000000, -1.000000000000000000 ) ) ;
#183 = DIRECTION ( 'NONE',  ( -0.000000000000000000, -0.000000000000000000, -1.000000000000000000 ) ) ;
#184 = EDGE_CURVE ( 'NONE', #238, #108, #78, .T. ) ;
#185 = DIRECTION ( 'NONE',  ( 1.000000000000000000, 0.000000000000000000, 0.000000000000000000 ) ) ;
#186 = LINE ( 'NONE', #89, #143 ) ;
#187 = CC_DESIGN_PERSON_AND_ORGANIZATION_ASSIGNMENT ( #153, #62, ( #232 ) ) ;
#188 = DIRECTION ( 'NONE',  ( -1.000000000000000000, 0.000000000000000000, 0.000000000000000000 ) ) ;
#189 = DIRECTION ( 'NONE',  ( -0.000000000000000000, -0.000000000000000000, -1.000000000000000000 ) ) ;
#190 = CARTESIAN_POINT ( 'NONE',  ( 4.099999999999999645, 5.021051876504147385E-16, 315.0000000000000000 ) ) ;
#191 = SECURITY_CLASSIFICATION ( '', '', #21 ) ;
#192 = APPROVAL_ROLE ( '' ) ;
#193 = DIRECTION ( 'NONE',  ( 0.000000000000000000, 0.000000000000000000, 1.000000000000000000 ) ) ;
#194 = CALENDAR_DATE ( 2023, 12, 2 ) ;
#195 = EDGE_LOOP ( 'NONE', ( #215, #111 ) ) ;
#196 = CALENDAR_DATE ( 2023, 12, 2 ) ;
#197 = APPROVAL_ROLE ( '' ) ;
#198 = PRODUCT_RELATED_PRODUCT_CATEGORY ( 'detail', '', ( #232 ) ) ;
#199 = ORIENTED_EDGE ( 'NONE', *, *, #184, .T. ) ;
#200 = AXIS2_PLACEMENT_3D ( 'NONE', #133, #193, #18 ) ;
#201 = PERSON_AND_ORGANIZATION ( #6, #117 ) ;
#202 = FACE_OUTER_BOUND ( 'NONE', #50, .T. ) ;
#203 = DIRECTION ( 'NONE',  ( 0.000000000000000000, 0.000000000000000000, 1.000000000000000000 ) ) ;
#204 = ORIENTED_EDGE ( 'NONE', *, *, #210, .T. ) ;
#205 = EDGE_CURVE ( 'NONE', #206, #83, #134, .T. ) ;
#206 = VERTEX_POINT ( 'NONE', #23 ) ;
#207 = AXIS2_PLACEMENT_3D ( 'NONE', #242, #145, #163 ) ;
#208 = PERSON_AND_ORGANIZATION_ROLE ( 'creator' ) ;
#209 = EDGE_CURVE ( 'NONE', #238, #52, #112, .T. ) ;
#210 = EDGE_CURVE ( 'NONE', #131, #83, #30, .T. ) ;
#211 = DIRECTION ( 'NONE',  ( 1.000000000000000000, 0.000000000000000000, -0.000000000000000000 ) ) ;
#212 = CIRCLE ( 'NONE', #164, 7.000000000000000000 ) ;
#213 = DATE_AND_TIME ( #63, #124 ) ;
#214 = DIRECTION ( 'NONE',  ( 1.000000000000000000, 0.000000000000000000, 0.000000000000000000 ) ) ;
#215 = ORIENTED_EDGE ( 'NONE', *, *, #70, .T. ) ;
#216 = CARTESIAN_POINT ( 'NONE',  ( -4.099999999999999645, 0.000000000000000000, 315.0000000000000000 ) ) ;
#217 = VECTOR ( 'NONE', #183, 1000.000000000000000 ) ;
#218 = PERSON_AND_ORGANIZATION ( #6, #117 ) ;
#219 = ORIENTED_EDGE ( 'NONE', *, *, #39, .T. ) ;
#220 = FACE_OUTER_BOUND ( 'NONE', #3, .T. ) ;
#221 = EDGE_CURVE ( 'NONE', #131, #230, #95, .T. ) ;
#222 = DIRECTION ( 'NONE',  ( 0.000000000000000000, 0.000000000000000000, 1.000000000000000000 ) ) ;
#223 = AXIS2_PLACEMENT_3D ( 'NONE', #35, #5, #87 ) ;
#224 = CC_DESIGN_PERSON_AND_ORGANIZATION_ASSIGNMENT ( #169, #248, ( #125 ) ) ;
#225 = DIRECTION ( 'NONE',  ( -0.000000000000000000, -0.000000000000000000, -1.000000000000000000 ) ) ;
#226 = DATE_AND_TIME ( #249, #16 ) ;
#227 = APPROVAL_STATUS ( 'not_yet_approved' ) ;
#228 = APPLICATION_PROTOCOL_DEFINITION ( 'international standard', 'config_control_design', 1994, #22 ) ;
#229 = FACE_OUTER_BOUND ( 'NONE', #195, .T. ) ;
#230 = VERTEX_POINT ( 'NONE', #34 ) ;
#231 = APPROVAL_STATUS ( 'not_yet_approved' ) ;
#232 = PRODUCT ( '4df4', '4df4', '', ( #60 ) ) ;
#233 = EDGE_CURVE ( 'NONE', #108, #254, #186, .T. ) ;
#234 = CC_DESIGN_APPROVAL ( #44, ( #191 ) ) ;
#235 = MANIFOLD_SOLID_BREP ( 'Pøidat vysunutím3', #65 ) ;
#236 = LINE ( 'NONE', #139, #66 ) ;
#237 = FACE_OUTER_BOUND ( 'NONE', #25, .T. ) ;
#238 = VERTEX_POINT ( 'NONE', #190 ) ;
#239 = AXIS2_PLACEMENT_3D ( 'NONE', #148, #225, #123 ) ;
#240 = ORIENTED_EDGE ( 'NONE', *, *, #210, .F. ) ;
#241 = CARTESIAN_POINT ( 'NONE',  ( -4.099999999999999645, 0.000000000000000000, 5.000000000000000000 ) ) ;
#242 = CARTESIAN_POINT ( 'NONE',  ( 0.000000000000000000, 0.000000000000000000, 0.000000000000000000 ) ) ;
#243 = CARTESIAN_POINT ( 'NONE',  ( 4.099999999999999645, 5.021051876504147385E-16, 315.0000000000000000 ) ) ;
#244 = CARTESIAN_POINT ( 'NONE',  ( 0.000000000000000000, 0.000000000000000000, 315.0000000000000000 ) ) ;
#245 =( NAMED_UNIT ( * ) SI_UNIT ( $, .STERADIAN. ) SOLID_ANGLE_UNIT ( ) );
#246 = DIRECTION ( 'NONE',  ( 0.000000000000000000, 0.000000000000000000, 1.000000000000000000 ) ) ;
#247 = APPROVAL_PERSON_ORGANIZATION ( #76, #114, #118 ) ;
#248 = PERSON_AND_ORGANIZATION_ROLE ( 'creator' ) ;
#249 = CALENDAR_DATE ( 2023, 12, 2 ) ;
#250 = PRODUCT_DEFINITION_FORMATION_WITH_SPECIFIED_SOURCE ( 'LIBOVOLNÝ', '', #232, .NOT_KNOWN. ) ;
#251 = DIRECTION ( 'NONE',  ( 0.000000000000000000, 0.000000000000000000, 1.000000000000000000 ) ) ;
#252 = DIRECTION ( 'NONE',  ( 0.000000000000000000, 0.000000000000000000, 1.000000000000000000 ) ) ;
#253 = SHAPE_DEFINITION_REPRESENTATION ( #80, #116 ) ;
#254 = VERTEX_POINT ( 'NONE', #241 ) ;
#255 = AXIS2_PLACEMENT_3D ( 'NONE', #85, #104, #214 ) ;
ENDSEC;
END-ISO-10303-21;
