ISO-10303-21;
HEADER;
FILE_DESCRIPTION (( 'STEP AP203' ),
    '1' );
FILE_NAME ('e080.STEP',
    '2023-02-12T11:28:48',
    ( '' ),
    ( '' ),
    'SwSTEP 2.0',
    'SolidWorks 2019',
    '' );
FILE_SCHEMA (( 'CONFIG_CONTROL_DESIGN' ));
ENDSEC;

DATA;
#1 = APPROVAL_ROLE ( '' ) ;
#2 = AXIS2_PLACEMENT_3D ( 'NONE', #158, #57, #217 ) ;
#3 = ADVANCED_FACE ( 'NONE', ( #100 ), #79, .T. ) ;
#4 = ORIENTED_EDGE ( 'NONE', *, *, #90, .F. ) ;
#5 = PERSON_AND_ORGANIZATION ( #191, #112 ) ;
#6 = PRODUCT_DEFINITION_FORMATION_WITH_SPECIFIED_SOURCE ( 'LIBOVOLNÝ', '', #147, .NOT_KNOWN. ) ;
#7 = CARTESIAN_POINT ( 'NONE',  ( 3.500000000000000000, 4.286263797015735609E-16, 5.000000000000000000 ) ) ;
#8 = FACE_OUTER_BOUND ( 'NONE', #55, .T. ) ;
#9 = CIRCLE ( 'NONE', #155, 3.500000000000000000 ) ;
#10 = VECTOR ( 'NONE', #113, 1000.000000000000000 ) ;
#11 = APPLICATION_PROTOCOL_DEFINITION ( 'international standard', 'config_control_design', 1994, #42 ) ;
#12 = DIRECTION ( 'NONE',  ( 0.000000000000000000, 0.000000000000000000, 1.000000000000000000 ) ) ;
#13 = CARTESIAN_POINT ( 'NONE',  ( -6.000000000000000888, 0.000000000000000000, 5.000000000000000000 ) ) ;
#14 = PRODUCT_DEFINITION ( 'NEZNÁMÝ', '', #6, #43 ) ;
#15 = VERTEX_POINT ( 'NONE', #106 ) ;
#16 = COORDINATED_UNIVERSAL_TIME_OFFSET ( 1, 0, .AHEAD. ) ;
#17 = EDGE_CURVE ( 'NONE', #210, #140, #93, .T. ) ;
#18 = ORIENTED_EDGE ( 'NONE', *, *, #86, .T. ) ;
#19 = CYLINDRICAL_SURFACE ( 'NONE', #200, 3.500000000000000000 ) ;
#20 = AXIS2_PLACEMENT_3D ( 'NONE', #85, #241, #205 ) ;
#21 = DATE_TIME_ROLE ( 'creation_date' ) ;
#22 = DIRECTION ( 'NONE',  ( -0.000000000000000000, -0.000000000000000000, -1.000000000000000000 ) ) ;
#23 = ORIENTED_EDGE ( 'NONE', *, *, #201, .F. ) ;
#24 = DIRECTION ( 'NONE',  ( -1.000000000000000000, 0.000000000000000000, 0.000000000000000000 ) ) ;
#25 = CALENDAR_DATE ( 2023, 12, 2 ) ;
#26 = ORIENTED_EDGE ( 'NONE', *, *, #82, .F. ) ;
#27 = COORDINATED_UNIVERSAL_TIME_OFFSET ( 1, 0, .AHEAD. ) ;
#28 = AXIS2_PLACEMENT_3D ( 'NONE', #219, #98, #171 ) ;
#29 = AXIS2_PLACEMENT_3D ( 'NONE', #207, #224, #49 ) ;
#30 = DIRECTION ( 'NONE',  ( 1.000000000000000000, 0.000000000000000000, -0.000000000000000000 ) ) ;
#31 = DIRECTION ( 'NONE',  ( 1.000000000000000000, 0.000000000000000000, -0.000000000000000000 ) ) ;
#32 = ORIENTED_EDGE ( 'NONE', *, *, #86, .F. ) ;
#33 = AXIS2_PLACEMENT_3D ( 'NONE', #116, #194, #97 ) ;
#34 = CARTESIAN_POINT ( 'NONE',  ( 0.000000000000000000, 0.000000000000000000, 0.000000000000000000 ) ) ;
#35 = APPROVAL_PERSON_ORGANIZATION ( #101, #208, #255 ) ;
#36 = ADVANCED_FACE ( 'NONE', ( #8 ), #74, .T. ) ;
#37 = ORIENTED_EDGE ( 'NONE', *, *, #59, .F. ) ;
#38 = UNCERTAINTY_MEASURE_WITH_UNIT (LENGTH_MEASURE( 1.000000000000000082E-05 ), #133, 'distance_accuracy_value', 'NONE');
#39 = APPROVAL_STATUS ( 'not_yet_approved' ) ;
#40 = VECTOR ( 'NONE', #22, 1000.000000000000000 ) ;
#41 = COORDINATED_UNIVERSAL_TIME_OFFSET ( 1, 0, .AHEAD. ) ;
#42 = APPLICATION_CONTEXT ( 'configuration controlled 3d designs of mechanical parts and assemblies' ) ;
#43 = DESIGN_CONTEXT ( 'detailed design', #206, 'design' ) ;
#44 = SHAPE_DEFINITION_REPRESENTATION ( #150, #145 ) ;
#45 = CC_DESIGN_DATE_AND_TIME_ASSIGNMENT ( #120, #21, ( #14 ) ) ;
#46 = CIRCLE ( 'NONE', #108, 3.500000000000000000 ) ;
#47 = CARTESIAN_POINT ( 'NONE',  ( 0.000000000000000000, 0.000000000000000000, 5.000000000000000000 ) ) ;
#48 = SECURITY_CLASSIFICATION ( '', '', #180 ) ;
#49 = DIRECTION ( 'NONE',  ( 1.000000000000000000, 0.000000000000000000, 0.000000000000000000 ) ) ;
#50 =( NAMED_UNIT ( * ) PLANE_ANGLE_UNIT ( ) SI_UNIT ( $, .RADIAN. ) );
#51 = EDGE_CURVE ( 'NONE', #178, #91, #152, .T. ) ;
#52 = FACE_OUTER_BOUND ( 'NONE', #192, .T. ) ;
#53 = DIRECTION ( 'NONE',  ( 1.000000000000000000, 0.000000000000000000, 0.000000000000000000 ) ) ;
#54 = DIRECTION ( 'NONE',  ( 1.000000000000000000, 0.000000000000000000, 0.000000000000000000 ) ) ;
#55 = EDGE_LOOP ( 'NONE', ( #37, #4, #160, #157 ) ) ;
#56 = DIRECTION ( 'NONE',  ( 0.000000000000000000, 0.000000000000000000, 1.000000000000000000 ) ) ;
#57 = DIRECTION ( 'NONE',  ( 0.000000000000000000, 0.000000000000000000, 1.000000000000000000 ) ) ;
#58 = CALENDAR_DATE ( 2023, 12, 2 ) ;
#59 = EDGE_CURVE ( 'NONE', #15, #178, #60, .T. ) ;
#60 = LINE ( 'NONE', #142, #40 ) ;
#61 = AXIS2_PLACEMENT_3D ( 'NONE', #47, #163, #179 ) ;
#62 = EDGE_LOOP ( 'NONE', ( #32, #214, #94, #104 ) ) ;
#63 = PERSON_AND_ORGANIZATION_ROLE ( 'design_supplier' ) ;
#64 = ADVANCED_FACE ( 'NONE', ( #103 ), #19, .T. ) ;
#65 = CALENDAR_DATE ( 2023, 12, 2 ) ;
#66 = AXIS2_PLACEMENT_3D ( 'NONE', #87, #211, #31 ) ;
#67 = DIRECTION ( 'NONE',  ( 0.000000000000000000, 0.000000000000000000, 1.000000000000000000 ) ) ;
#68 = VECTOR ( 'NONE', #240, 1000.000000000000000 ) ;
#69 = CARTESIAN_POINT ( 'NONE',  ( 6.000000000000000888, 7.347880794884120722E-16, 0.000000000000000000 ) ) ;
#70 = PERSON_AND_ORGANIZATION ( #191, #112 ) ;
#71 = EDGE_LOOP ( 'NONE', ( #234, #23, #212, #114 ) ) ;
#72 = PLANE ( 'NONE',  #246 ) ;
#73 = CARTESIAN_POINT ( 'NONE',  ( 0.000000000000000000, 0.000000000000000000, 5.000000000000000000 ) ) ;
#74 = CYLINDRICAL_SURFACE ( 'NONE', #253, 3.500000000000000000 ) ;
#75 = MECHANICAL_CONTEXT ( 'NONE', #42, 'mechanical' ) ;
#76 = FACE_OUTER_BOUND ( 'NONE', #71, .T. ) ;
#77 = CC_DESIGN_SECURITY_CLASSIFICATION ( #48, ( #6 ) ) ;
#78 = EDGE_LOOP ( 'NONE', ( #81, #232, #127, #173 ) ) ;
#79 = PLANE ( 'NONE',  #2 ) ;
#80 = CC_DESIGN_APPROVAL ( #161, ( #48 ) ) ;
#81 = ORIENTED_EDGE ( 'NONE', *, *, #17, .F. ) ;
#82 = EDGE_CURVE ( 'NONE', #198, #221, #107, .T. ) ;
#83 = CYLINDRICAL_SURFACE ( 'NONE', #61, 6.000000000000000888 ) ;
#84 = DATE_AND_TIME ( #25, #188 ) ;
#85 = CARTESIAN_POINT ( 'NONE',  ( 0.000000000000000000, 0.000000000000000000, 5.000000000000000000 ) ) ;
#86 = EDGE_CURVE ( 'NONE', #15, #162, #9, .T. ) ;
#87 = CARTESIAN_POINT ( 'NONE',  ( 0.000000000000000000, 0.000000000000000000, 0.000000000000000000 ) ) ;
#88 = CIRCLE ( 'NONE', #29, 6.000000000000000888 ) ;
#89 = FACE_OUTER_BOUND ( 'NONE', #132, .T. ) ;
#90 = EDGE_CURVE ( 'NONE', #162, #15, #111, .T. ) ;
#91 = VERTEX_POINT ( 'NONE', #105 ) ;
#92 = FACE_BOUND ( 'NONE', #236, .T. ) ;
#93 = CIRCLE ( 'NONE', #170, 6.000000000000000888 ) ;
#94 = ORIENTED_EDGE ( 'NONE', *, *, #51, .T. ) ;
#95 = LOCAL_TIME ( 12, 28, 48.00000000000000000, #16 ) ;
#96 = PERSON_AND_ORGANIZATION ( #191, #112 ) ;
#97 = DIRECTION ( 'NONE',  ( 1.000000000000000000, 0.000000000000000000, 0.000000000000000000 ) ) ;
#98 = DIRECTION ( 'NONE',  ( 0.000000000000000000, 0.000000000000000000, 1.000000000000000000 ) ) ;
#99 = LOCAL_TIME ( 12, 28, 48.00000000000000000, #181 ) ;
#100 = FACE_OUTER_BOUND ( 'NONE', #252, .T. ) ;
#101 = PERSON_AND_ORGANIZATION ( #191, #112 ) ;
#102 = MANIFOLD_SOLID_BREP ( 'Pøidat vysunutím3', #229 ) ;
#103 = FACE_OUTER_BOUND ( 'NONE', #62, .T. ) ;
#104 = ORIENTED_EDGE ( 'NONE', *, *, #153, .F. ) ;
#105 = CARTESIAN_POINT ( 'NONE',  ( -3.500000000000000000, 0.000000000000000000, 5.000000000000000000 ) ) ;
#106 = CARTESIAN_POINT ( 'NONE',  ( 3.500000000000000000, 4.286263797015735609E-16, 400.0000000000000000 ) ) ;
#107 = CIRCLE ( 'NONE', #125, 6.000000000000000888 ) ;
#108 = AXIS2_PLACEMENT_3D ( 'NONE', #245, #189, #230 ) ;
#109 = APPROVAL_STATUS ( 'not_yet_approved' ) ;
#110 = DATE_AND_TIME ( #65, #130 ) ;
#111 = CIRCLE ( 'NONE', #28, 3.500000000000000000 ) ;
#112 = ORGANIZATION ( 'NEURÈENÝ', 'NEURÈENÝ', '' ) ;
#113 = DIRECTION ( 'NONE',  ( -0.000000000000000000, -0.000000000000000000, -1.000000000000000000 ) ) ;
#114 = ORIENTED_EDGE ( 'NONE', *, *, #254, .T. ) ;
#115 = PRODUCT_RELATED_PRODUCT_CATEGORY ( 'detail', '', ( #147 ) ) ;
#116 = CARTESIAN_POINT ( 'NONE',  ( 0.000000000000000000, 0.000000000000000000, 5.000000000000000000 ) ) ;
#117 = CALENDAR_DATE ( 2023, 12, 2 ) ;
#118 = CARTESIAN_POINT ( 'NONE',  ( 0.000000000000000000, 0.000000000000000000, 400.0000000000000000 ) ) ;
#119 = ORIENTED_EDGE ( 'NONE', *, *, #201, .T. ) ;
#120 = DATE_AND_TIME ( #58, #156 ) ;
#121 = ORIENTED_EDGE ( 'NONE', *, *, #51, .F. ) ;
#122 = PERSON_AND_ORGANIZATION_ROLE ( 'creator' ) ;
#123 = CARTESIAN_POINT ( 'NONE',  ( -3.500000000000000000, 0.000000000000000000, 400.0000000000000000 ) ) ;
#124 = ORIENTED_EDGE ( 'NONE', *, *, #17, .T. ) ;
#125 = AXIS2_PLACEMENT_3D ( 'NONE', #135, #213, #251 ) ;
#126 = FACE_OUTER_BOUND ( 'NONE', #78, .T. ) ;
#127 = ORIENTED_EDGE ( 'NONE', *, *, #82, .T. ) ;
#128 = CARTESIAN_POINT ( 'NONE',  ( -3.500000000000000000, 0.000000000000000000, 400.0000000000000000 ) ) ;
#129 = CC_DESIGN_PERSON_AND_ORGANIZATION_ASSIGNMENT ( #202, #184, ( #48 ) ) ;
#130 = LOCAL_TIME ( 12, 28, 48.00000000000000000, #222 ) ;
#131 = CARTESIAN_POINT ( 'NONE',  ( 6.000000000000000888, 7.347880794884120722E-16, 5.000000000000000000 ) ) ;
#132 = EDGE_LOOP ( 'NONE', ( #250, #26 ) ) ;
#133 =( LENGTH_UNIT ( ) NAMED_UNIT ( * ) SI_UNIT ( .MILLI., .METRE. ) );
#134 = CC_DESIGN_PERSON_AND_ORGANIZATION_ASSIGNMENT ( #5, #63, ( #6 ) ) ;
#135 = CARTESIAN_POINT ( 'NONE',  ( 0.000000000000000000, 0.000000000000000000, 0.000000000000000000 ) ) ;
#136 = CARTESIAN_POINT ( 'NONE',  ( -6.000000000000000888, 0.000000000000000000, 5.000000000000000000 ) ) ;
#137 = EDGE_CURVE ( 'NONE', #210, #198, #248, .T. ) ;
#138 = PERSON_AND_ORGANIZATION ( #191, #112 ) ;
#139 = DIRECTION ( 'NONE',  ( -0.000000000000000000, -0.000000000000000000, -1.000000000000000000 ) ) ;
#140 = VERTEX_POINT ( 'NONE', #136 ) ;
#141 = APPROVAL_DATE_TIME ( #174, #168 ) ;
#142 = CARTESIAN_POINT ( 'NONE',  ( 3.500000000000000000, 4.286263797015735609E-16, 400.0000000000000000 ) ) ;
#143 = APPROVAL_PERSON_ORGANIZATION ( #96, #168, #176 ) ;
#144 = APPROVAL_STATUS ( 'not_yet_approved' ) ;
#145 = ADVANCED_BREP_SHAPE_REPRESENTATION ( 'e080', ( #102, #203 ), #185 ) ;
#146 = CYLINDRICAL_SURFACE ( 'NONE', #20, 6.000000000000000888 ) ;
#147 = PRODUCT ( 'e080', 'e080', '', ( #75 ) ) ;
#148 = DATE_TIME_ROLE ( 'classification_date' ) ;
#149 = ADVANCED_FACE ( 'NONE', ( #76 ), #83, .T. ) ;
#150 = PRODUCT_DEFINITION_SHAPE ( 'NONE', 'NONE',  #14 ) ;
#151 = CARTESIAN_POINT ( 'NONE',  ( 0.000000000000000000, 0.000000000000000000, 5.000000000000000000 ) ) ;
#152 = CIRCLE ( 'NONE', #33, 3.500000000000000000 ) ;
#153 = EDGE_CURVE ( 'NONE', #162, #91, #220, .T. ) ;
#154 = DIRECTION ( 'NONE',  ( -0.000000000000000000, -0.000000000000000000, -1.000000000000000000 ) ) ;
#155 = AXIS2_PLACEMENT_3D ( 'NONE', #159, #56, #53 ) ;
#156 = LOCAL_TIME ( 12, 28, 48.00000000000000000, #41 ) ;
#157 = ORIENTED_EDGE ( 'NONE', *, *, #243, .T. ) ;
#158 = CARTESIAN_POINT ( 'NONE',  ( 0.000000000000000000, 0.000000000000000000, 400.0000000000000000 ) ) ;
#159 = CARTESIAN_POINT ( 'NONE',  ( 0.000000000000000000, 0.000000000000000000, 400.0000000000000000 ) ) ;
#160 = ORIENTED_EDGE ( 'NONE', *, *, #153, .T. ) ;
#161 = APPROVAL ( #144, 'NEURÈENÝ' ) ;
#162 = VERTEX_POINT ( 'NONE', #128 ) ;
#163 = DIRECTION ( 'NONE',  ( -0.000000000000000000, -0.000000000000000000, -1.000000000000000000 ) ) ;
#164 = CC_DESIGN_PERSON_AND_ORGANIZATION_ASSIGNMENT ( #238, #122, ( #6 ) ) ;
#165 = CALENDAR_DATE ( 2023, 12, 2 ) ;
#166 =( NAMED_UNIT ( * ) SI_UNIT ( $, .STERADIAN. ) SOLID_ANGLE_UNIT ( ) );
#167 = CARTESIAN_POINT ( 'NONE',  ( 0.000000000000000000, 0.000000000000000000, 0.000000000000000000 ) ) ;
#168 = APPROVAL ( #39, 'NEURÈENÝ' ) ;
#169 = LINE ( 'NONE', #13, #10 ) ;
#170 = AXIS2_PLACEMENT_3D ( 'NONE', #151, #12, #172 ) ;
#171 = DIRECTION ( 'NONE',  ( 1.000000000000000000, 0.000000000000000000, 0.000000000000000000 ) ) ;
#172 = DIRECTION ( 'NONE',  ( 1.000000000000000000, 0.000000000000000000, 0.000000000000000000 ) ) ;
#173 = ORIENTED_EDGE ( 'NONE', *, *, #226, .F. ) ;
#174 = DATE_AND_TIME ( #117, #95 ) ;
#175 = CARTESIAN_POINT ( 'NONE',  ( 0.000000000000000000, 0.000000000000000000, 400.0000000000000000 ) ) ;
#176 = APPROVAL_ROLE ( '' ) ;
#177 = DIRECTION ( 'NONE',  ( -0.000000000000000000, -0.000000000000000000, -1.000000000000000000 ) ) ;
#178 = VERTEX_POINT ( 'NONE', #7 ) ;
#179 = DIRECTION ( 'NONE',  ( -1.000000000000000000, 0.000000000000000000, 0.000000000000000000 ) ) ;
#180 = SECURITY_CLASSIFICATION_LEVEL ( 'unclassified' ) ;
#181 = COORDINATED_UNIVERSAL_TIME_OFFSET ( 1, 0, .AHEAD. ) ;
#182 = ADVANCED_FACE ( 'NONE', ( #126 ), #146, .T. ) ;
#183 = DATE_AND_TIME ( #165, #99 ) ;
#184 = PERSON_AND_ORGANIZATION_ROLE ( 'classification_officer' ) ;
#185 =( GEOMETRIC_REPRESENTATION_CONTEXT ( 3 ) GLOBAL_UNCERTAINTY_ASSIGNED_CONTEXT ( ( #38 ) ) GLOBAL_UNIT_ASSIGNED_CONTEXT ( ( #133, #50, #166 ) ) REPRESENTATION_CONTEXT ( 'NONE', 'WORKASPACE' ) );
#186 = DIRECTION ( 'NONE',  ( 0.000000000000000000, 0.000000000000000000, 1.000000000000000000 ) ) ;
#187 = DIRECTION ( 'NONE',  ( 1.000000000000000000, 0.000000000000000000, 0.000000000000000000 ) ) ;
#188 = LOCAL_TIME ( 12, 28, 48.00000000000000000, #27 ) ;
#189 = DIRECTION ( 'NONE',  ( 0.000000000000000000, 0.000000000000000000, 1.000000000000000000 ) ) ;
#190 = ADVANCED_FACE ( 'NONE', ( #92, #52 ), #72, .T. ) ;
#191 = PERSON ( 'NEURÈENÝ', 'NEURÈENÝ', 'NEURÈENÝ', ('NEURÈENÝ'), ('NEURÈENÝ'), ('NEURÈENÝ') ) ;
#192 = EDGE_LOOP ( 'NONE', ( #119, #124 ) ) ;
#193 = APPROVAL_PERSON_ORGANIZATION ( #70, #161, #1 ) ;
#194 = DIRECTION ( 'NONE',  ( 0.000000000000000000, 0.000000000000000000, 1.000000000000000000 ) ) ;
#195 = VECTOR ( 'NONE', #154, 1000.000000000000000 ) ;
#196 = PERSON_AND_ORGANIZATION_ROLE ( 'creator' ) ;
#197 = ADVANCED_FACE ( 'NONE', ( #89 ), #228, .F. ) ;
#198 = VERTEX_POINT ( 'NONE', #69 ) ;
#199 = DIRECTION ( 'NONE',  ( -1.000000000000000000, 0.000000000000000000, 0.000000000000000000 ) ) ;
#200 = AXIS2_PLACEMENT_3D ( 'NONE', #175, #177, #24 ) ;
#201 = EDGE_CURVE ( 'NONE', #140, #210, #88, .T. ) ;
#202 = PERSON_AND_ORGANIZATION ( #191, #112 ) ;
#203 = AXIS2_PLACEMENT_3D ( 'NONE', #34, #235, #54 ) ;
#204 = CC_DESIGN_DATE_AND_TIME_ASSIGNMENT ( #183, #148, ( #48 ) ) ;
#205 = DIRECTION ( 'NONE',  ( -1.000000000000000000, 0.000000000000000000, 0.000000000000000000 ) ) ;
#206 = APPLICATION_CONTEXT ( 'configuration controlled 3d designs of mechanical parts and assemblies' ) ;
#207 = CARTESIAN_POINT ( 'NONE',  ( 0.000000000000000000, 0.000000000000000000, 5.000000000000000000 ) ) ;
#208 = APPROVAL ( #109, 'NEURÈENÝ' ) ;
#209 = CIRCLE ( 'NONE', #233, 6.000000000000000888 ) ;
#210 = VERTEX_POINT ( 'NONE', #131 ) ;
#211 = DIRECTION ( 'NONE',  ( 0.000000000000000000, 0.000000000000000000, 1.000000000000000000 ) ) ;
#212 = ORIENTED_EDGE ( 'NONE', *, *, #226, .T. ) ;
#213 = DIRECTION ( 'NONE',  ( 0.000000000000000000, 0.000000000000000000, 1.000000000000000000 ) ) ;
#214 = ORIENTED_EDGE ( 'NONE', *, *, #59, .T. ) ;
#215 = PERSON_AND_ORGANIZATION_ROLE ( 'design_owner' ) ;
#216 = PERSON_AND_ORGANIZATION ( #191, #112 ) ;
#217 = DIRECTION ( 'NONE',  ( 1.000000000000000000, 0.000000000000000000, -0.000000000000000000 ) ) ;
#218 = APPROVAL_DATE_TIME ( #84, #161 ) ;
#219 = CARTESIAN_POINT ( 'NONE',  ( 0.000000000000000000, 0.000000000000000000, 400.0000000000000000 ) ) ;
#220 = LINE ( 'NONE', #123, #68 ) ;
#221 = VERTEX_POINT ( 'NONE', #225 ) ;
#222 = COORDINATED_UNIVERSAL_TIME_OFFSET ( 1, 0, .AHEAD. ) ;
#223 = CC_DESIGN_PERSON_AND_ORGANIZATION_ASSIGNMENT ( #216, #196, ( #14 ) ) ;
#224 = DIRECTION ( 'NONE',  ( 0.000000000000000000, 0.000000000000000000, 1.000000000000000000 ) ) ;
#225 = CARTESIAN_POINT ( 'NONE',  ( -6.000000000000000888, 0.000000000000000000, 0.000000000000000000 ) ) ;
#226 = EDGE_CURVE ( 'NONE', #140, #221, #169, .T. ) ;
#227 = ORIENTED_EDGE ( 'NONE', *, *, #243, .F. ) ;
#228 = PLANE ( 'NONE',  #66 ) ;
#229 = CLOSED_SHELL ( 'NONE', ( #64, #182, #149, #190, #197, #36, #3 ) ) ;
#230 = DIRECTION ( 'NONE',  ( 1.000000000000000000, 0.000000000000000000, 0.000000000000000000 ) ) ;
#231 = APPLICATION_PROTOCOL_DEFINITION ( 'international standard', 'config_control_design', 1994, #206 ) ;
#232 = ORIENTED_EDGE ( 'NONE', *, *, #137, .T. ) ;
#233 = AXIS2_PLACEMENT_3D ( 'NONE', #167, #186, #187 ) ;
#234 = ORIENTED_EDGE ( 'NONE', *, *, #137, .F. ) ;
#235 = DIRECTION ( 'NONE',  ( 0.000000000000000000, 0.000000000000000000, 1.000000000000000000 ) ) ;
#236 = EDGE_LOOP ( 'NONE', ( #227, #121 ) ) ;
#237 = CC_DESIGN_APPROVAL ( #168, ( #14 ) ) ;
#238 = PERSON_AND_ORGANIZATION ( #191, #112 ) ;
#239 = APPROVAL_DATE_TIME ( #110, #208 ) ;
#240 = DIRECTION ( 'NONE',  ( -0.000000000000000000, -0.000000000000000000, -1.000000000000000000 ) ) ;
#241 = DIRECTION ( 'NONE',  ( -0.000000000000000000, -0.000000000000000000, -1.000000000000000000 ) ) ;
#242 = CC_DESIGN_APPROVAL ( #208, ( #6 ) ) ;
#243 = EDGE_CURVE ( 'NONE', #91, #178, #46, .T. ) ;
#244 = ORIENTED_EDGE ( 'NONE', *, *, #90, .T. ) ;
#245 = CARTESIAN_POINT ( 'NONE',  ( 0.000000000000000000, 0.000000000000000000, 5.000000000000000000 ) ) ;
#246 = AXIS2_PLACEMENT_3D ( 'NONE', #73, #67, #30 ) ;
#247 = CC_DESIGN_PERSON_AND_ORGANIZATION_ASSIGNMENT ( #138, #215, ( #147 ) ) ;
#248 = LINE ( 'NONE', #249, #195 ) ;
#249 = CARTESIAN_POINT ( 'NONE',  ( 6.000000000000000888, 7.347880794884120722E-16, 5.000000000000000000 ) ) ;
#250 = ORIENTED_EDGE ( 'NONE', *, *, #254, .F. ) ;
#251 = DIRECTION ( 'NONE',  ( 1.000000000000000000, 0.000000000000000000, 0.000000000000000000 ) ) ;
#252 = EDGE_LOOP ( 'NONE', ( #244, #18 ) ) ;
#253 = AXIS2_PLACEMENT_3D ( 'NONE', #118, #139, #199 ) ;
#254 = EDGE_CURVE ( 'NONE', #221, #198, #209, .T. ) ;
#255 = APPROVAL_ROLE ( '' ) ;
ENDSEC;
END-ISO-10303-21;
