ISO-10303-21;
HEADER;
FILE_DESCRIPTION (( 'STEP AP203' ),
    '1' );
FILE_NAME ('3a4c.STEP',
    '2023-02-12T12:01:53',
    ( '' ),
    ( '' ),
    'SwSTEP 2.0',
    'SolidWorks 2019',
    '' );
FILE_SCHEMA (( 'CONFIG_CONTROL_DESIGN' ));
ENDSEC;

DATA;
#1 = ORIENTED_EDGE ( 'NONE', *, *, #62, .F. ) ;
#2 = PRODUCT_RELATED_PRODUCT_CATEGORY ( 'detail', '', ( #182 ) ) ;
#3 = ORIENTED_EDGE ( 'NONE', *, *, #74, .T. ) ;
#4 = LOCAL_TIME ( 13, 1, 53.00000000000000000, #210 ) ;
#5 = EDGE_LOOP ( 'NONE', ( #162, #219, #102, #40 ) ) ;
#6 = ORIENTED_EDGE ( 'NONE', *, *, #50, .T. ) ;
#7 = CARTESIAN_POINT ( 'NONE',  ( 4.000000000000000000, 4.898587196589412829E-16, 3.000000000000000000 ) ) ;
#8 = CIRCLE ( 'NONE', #130, 4.000000000000000000 ) ;
#9 = VECTOR ( 'NONE', #151, 1000.000000000000000 ) ;
#10 = PLANE ( 'NONE',  #234 ) ;
#11 = APPROVAL_PERSON_ORGANIZATION ( #55, #140, #252 ) ;
#12 = DIRECTION ( 'NONE',  ( 1.000000000000000000, 0.000000000000000000, 0.000000000000000000 ) ) ;
#13 = AXIS2_PLACEMENT_3D ( 'NONE', #239, #98, #241 ) ;
#14 = LOCAL_TIME ( 13, 1, 53.00000000000000000, #92 ) ;
#15 = APPROVAL_STATUS ( 'not_yet_approved' ) ;
#16 = COORDINATED_UNIVERSAL_TIME_OFFSET ( 1, 0, .AHEAD. ) ;
#17 = AXIS2_PLACEMENT_3D ( 'NONE', #36, #73, #157 ) ;
#18 = PERSON_AND_ORGANIZATION_ROLE ( 'classification_officer' ) ;
#19 = CALENDAR_DATE ( 2023, 12, 2 ) ;
#20 = EDGE_CURVE ( 'NONE', #39, #198, #106, .T. ) ;
#21 = CIRCLE ( 'NONE', #167, 4.000000000000000000 ) ;
#22 = VERTEX_POINT ( 'NONE', #255 ) ;
#23 = DIRECTION ( 'NONE',  ( 1.000000000000000000, 0.000000000000000000, 0.000000000000000000 ) ) ;
#24 = CARTESIAN_POINT ( 'NONE',  ( 0.000000000000000000, 0.000000000000000000, 3.000000000000000000 ) ) ;
#25 = CLOSED_SHELL ( 'NONE', ( #118, #246, #152, #192, #186, #208, #166 ) ) ;
#26 = ORIENTED_EDGE ( 'NONE', *, *, #20, .F. ) ;
#27 = ORIENTED_EDGE ( 'NONE', *, *, #174, .T. ) ;
#28 = CARTESIAN_POINT ( 'NONE',  ( -2.000000000000000000, 0.000000000000000000, 400.0000000000000000 ) ) ;
#29 = CIRCLE ( 'NONE', #242, 2.000000000000000000 ) ;
#30 = CARTESIAN_POINT ( 'NONE',  ( 2.000000000000000000, 2.449293598294706414E-16, 400.0000000000000000 ) ) ;
#31 = EDGE_CURVE ( 'NONE', #138, #144, #154, .T. ) ;
#32 = CARTESIAN_POINT ( 'NONE',  ( 2.000000000000000000, 2.449293598294706414E-16, 400.0000000000000000 ) ) ;
#33 = DIRECTION ( 'NONE',  ( 1.000000000000000000, 0.000000000000000000, -0.000000000000000000 ) ) ;
#34 = SHAPE_DEFINITION_REPRESENTATION ( #142, #194 ) ;
#35 = DATE_TIME_ROLE ( 'classification_date' ) ;
#36 = CARTESIAN_POINT ( 'NONE',  ( 0.000000000000000000, 0.000000000000000000, 0.000000000000000000 ) ) ;
#37 = CC_DESIGN_DATE_AND_TIME_ASSIGNMENT ( #53, #35, ( #136 ) ) ;
#38 = CALENDAR_DATE ( 2023, 12, 2 ) ;
#39 = VERTEX_POINT ( 'NONE', #238 ) ;
#40 = ORIENTED_EDGE ( 'NONE', *, *, #174, .F. ) ;
#41 = ORIENTED_EDGE ( 'NONE', *, *, #31, .T. ) ;
#42 = APPLICATION_CONTEXT ( 'configuration controlled 3d designs of mechanical parts and assemblies' ) ;
#43 = AXIS2_PLACEMENT_3D ( 'NONE', #90, #48, #247 ) ;
#44 = DIRECTION ( 'NONE',  ( 0.000000000000000000, 0.000000000000000000, 1.000000000000000000 ) ) ;
#45 = CARTESIAN_POINT ( 'NONE',  ( -4.000000000000000000, 0.000000000000000000, 0.000000000000000000 ) ) ;
#46 = CARTESIAN_POINT ( 'NONE',  ( 0.000000000000000000, 0.000000000000000000, 3.000000000000000000 ) ) ;
#47 = DESIGN_CONTEXT ( 'detailed design', #177, 'design' ) ;
#48 = DIRECTION ( 'NONE',  ( 0.000000000000000000, 0.000000000000000000, 1.000000000000000000 ) ) ;
#49 = PLANE ( 'NONE',  #121 ) ;
#50 = EDGE_CURVE ( 'NONE', #198, #179, #181, .T. ) ;
#51 = DIRECTION ( 'NONE',  ( -0.000000000000000000, -0.000000000000000000, -1.000000000000000000 ) ) ;
#52 = APPLICATION_PROTOCOL_DEFINITION ( 'international standard', 'config_control_design', 1994, #177 ) ;
#53 = DATE_AND_TIME ( #38, #14 ) ;
#54 = PERSON_AND_ORGANIZATION ( #80, #224 ) ;
#55 = PERSON_AND_ORGANIZATION ( #80, #224 ) ;
#56 = PERSON_AND_ORGANIZATION_ROLE ( 'creator' ) ;
#57 = AXIS2_PLACEMENT_3D ( 'NONE', #24, #164, #101 ) ;
#58 = CARTESIAN_POINT ( 'NONE',  ( -4.000000000000000000, 0.000000000000000000, 3.000000000000000000 ) ) ;
#59 = CIRCLE ( 'NONE', #43, 2.000000000000000000 ) ;
#60 = EDGE_LOOP ( 'NONE', ( #84, #119, #27, #141 ) ) ;
#61 = EDGE_LOOP ( 'NONE', ( #201, #115 ) ) ;
#62 = EDGE_CURVE ( 'NONE', #22, #122, #29, .T. ) ;
#63 = DIRECTION ( 'NONE',  ( -0.000000000000000000, -0.000000000000000000, -1.000000000000000000 ) ) ;
#64 = CIRCLE ( 'NONE', #57, 4.000000000000000000 ) ;
#65 = LINE ( 'NONE', #7, #86 ) ;
#66 = LOCAL_TIME ( 13, 1, 53.00000000000000000, #16 ) ;
#67 = CARTESIAN_POINT ( 'NONE',  ( 0.000000000000000000, 0.000000000000000000, 3.000000000000000000 ) ) ;
#68 = CARTESIAN_POINT ( 'NONE',  ( -4.000000000000000000, 0.000000000000000000, 3.000000000000000000 ) ) ;
#69 = LINE ( 'NONE', #107, #214 ) ;
#70 = LINE ( 'NONE', #32, #9 ) ;
#71 = EDGE_CURVE ( 'NONE', #197, #179, #8, .T. ) ;
#72 = CALENDAR_DATE ( 2023, 12, 2 ) ;
#73 = DIRECTION ( 'NONE',  ( 0.000000000000000000, 0.000000000000000000, 1.000000000000000000 ) ) ;
#74 = EDGE_CURVE ( 'NONE', #198, #39, #64, .T. ) ;
#75 = COORDINATED_UNIVERSAL_TIME_OFFSET ( 1, 0, .AHEAD. ) ;
#76 =( NAMED_UNIT ( * ) SI_UNIT ( $, .STERADIAN. ) SOLID_ANGLE_UNIT ( ) );
#77 = CC_DESIGN_PERSON_AND_ORGANIZATION_ASSIGNMENT ( #229, #134, ( #236 ) ) ;
#78 = ORIENTED_EDGE ( 'NONE', *, *, #20, .T. ) ;
#79 = ORIENTED_EDGE ( 'NONE', *, *, #71, .T. ) ;
#80 = PERSON ( 'NEURÈENÝ', 'NEURÈENÝ', 'NEURÈENÝ', ('NEURÈENÝ'), ('NEURÈENÝ'), ('NEURÈENÝ') ) ;
#81 = CARTESIAN_POINT ( 'NONE',  ( 0.000000000000000000, 0.000000000000000000, 0.000000000000000000 ) ) ;
#82 = DIRECTION ( 'NONE',  ( 0.000000000000000000, 0.000000000000000000, 1.000000000000000000 ) ) ;
#83 = EDGE_CURVE ( 'NONE', #179, #197, #21, .T. ) ;
#84 = ORIENTED_EDGE ( 'NONE', *, *, #240, .F. ) ;
#85 = CYLINDRICAL_SURFACE ( 'NONE', #116, 4.000000000000000000 ) ;
#86 = VECTOR ( 'NONE', #170, 1000.000000000000000 ) ;
#87 = EDGE_CURVE ( 'NONE', #122, #22, #94, .T. ) ;
#88 = DIRECTION ( 'NONE',  ( 1.000000000000000000, 0.000000000000000000, -0.000000000000000000 ) ) ;
#89 = FACE_OUTER_BOUND ( 'NONE', #60, .T. ) ;
#90 = CARTESIAN_POINT ( 'NONE',  ( 0.000000000000000000, 0.000000000000000000, 400.0000000000000000 ) ) ;
#91 = CARTESIAN_POINT ( 'NONE',  ( 0.000000000000000000, 0.000000000000000000, 0.000000000000000000 ) ) ;
#92 = COORDINATED_UNIVERSAL_TIME_OFFSET ( 1, 0, .AHEAD. ) ;
#93 = DATE_AND_TIME ( #153, #4 ) ;
#94 = CIRCLE ( 'NONE', #249, 2.000000000000000000 ) ;
#95 =( NAMED_UNIT ( * ) PLANE_ANGLE_UNIT ( ) SI_UNIT ( $, .RADIAN. ) );
#96 = MANIFOLD_SOLID_BREP ( 'Pøidat vysunutím3', #25 ) ;
#97 = DATE_AND_TIME ( #19, #187 ) ;
#98 = DIRECTION ( 'NONE',  ( 0.000000000000000000, 0.000000000000000000, 1.000000000000000000 ) ) ;
#99 = ORIENTED_EDGE ( 'NONE', *, *, #199, .T. ) ;
#100 = CC_DESIGN_PERSON_AND_ORGANIZATION_ASSIGNMENT ( #132, #56, ( #123 ) ) ;
#101 = DIRECTION ( 'NONE',  ( 1.000000000000000000, 0.000000000000000000, 0.000000000000000000 ) ) ;
#102 = ORIENTED_EDGE ( 'NONE', *, *, #87, .T. ) ;
#103 = CYLINDRICAL_SURFACE ( 'NONE', #204, 2.000000000000000000 ) ;
#104 = CC_DESIGN_PERSON_AND_ORGANIZATION_ASSIGNMENT ( #211, #18, ( #136 ) ) ;
#105 = FACE_OUTER_BOUND ( 'NONE', #180, .T. ) ;
#106 = CIRCLE ( 'NONE', #233, 4.000000000000000000 ) ;
#107 = CARTESIAN_POINT ( 'NONE',  ( -2.000000000000000000, 0.000000000000000000, 400.0000000000000000 ) ) ;
#108 = DIRECTION ( 'NONE',  ( -1.000000000000000000, 0.000000000000000000, 0.000000000000000000 ) ) ;
#109 = FACE_BOUND ( 'NONE', #216, .T. ) ;
#110 = APPLICATION_PROTOCOL_DEFINITION ( 'international standard', 'config_control_design', 1994, #42 ) ;
#111 = COORDINATED_UNIVERSAL_TIME_OFFSET ( 1, 0, .AHEAD. ) ;
#112 = APPROVAL_PERSON_ORGANIZATION ( #176, #212, #193 ) ;
#113 = APPROVAL_STATUS ( 'not_yet_approved' ) ;
#114 = PERSON_AND_ORGANIZATION ( #80, #224 ) ;
#115 = ORIENTED_EDGE ( 'NONE', *, *, #71, .F. ) ;
#116 = AXIS2_PLACEMENT_3D ( 'NONE', #202, #128, #206 ) ;
#117 = ORIENTED_EDGE ( 'NONE', *, *, #74, .F. ) ;
#118 = ADVANCED_FACE ( 'NONE', ( #191 ), #203, .T. ) ;
#119 = ORIENTED_EDGE ( 'NONE', *, *, #199, .F. ) ;
#120 = ORIENTED_EDGE ( 'NONE', *, *, #50, .F. ) ;
#121 = AXIS2_PLACEMENT_3D ( 'NONE', #189, #185, #88 ) ;
#122 = VERTEX_POINT ( 'NONE', #184 ) ;
#123 = PRODUCT_DEFINITION ( 'NEZNÁMÝ', '', #236, #47 ) ;
#124 = DIRECTION ( 'NONE',  ( 0.000000000000000000, 0.000000000000000000, 1.000000000000000000 ) ) ;
#125 = FACE_OUTER_BOUND ( 'NONE', #217, .T. ) ;
#126 = CYLINDRICAL_SURFACE ( 'NONE', #218, 4.000000000000000000 ) ;
#127 = APPROVAL_PERSON_ORGANIZATION ( #114, #161, #253 ) ;
#128 = DIRECTION ( 'NONE',  ( -0.000000000000000000, -0.000000000000000000, -1.000000000000000000 ) ) ;
#129 = DIRECTION ( 'NONE',  ( -1.000000000000000000, 0.000000000000000000, 0.000000000000000000 ) ) ;
#130 = AXIS2_PLACEMENT_3D ( 'NONE', #81, #82, #163 ) ;
#131 =( GEOMETRIC_REPRESENTATION_CONTEXT ( 3 ) GLOBAL_UNCERTAINTY_ASSIGNED_CONTEXT ( ( #188 ) ) GLOBAL_UNIT_ASSIGNED_CONTEXT ( ( #171, #95, #76 ) ) REPRESENTATION_CONTEXT ( 'NONE', 'WORKASPACE' ) );
#132 = PERSON_AND_ORGANIZATION ( #80, #224 ) ;
#133 = APPROVAL_DATE_TIME ( #93, #212 ) ;
#134 = PERSON_AND_ORGANIZATION_ROLE ( 'design_supplier' ) ;
#135 = PERSON_AND_ORGANIZATION_ROLE ( 'design_owner' ) ;
#136 = SECURITY_CLASSIFICATION ( '', '', #232 ) ;
#137 = APPROVAL_STATUS ( 'not_yet_approved' ) ;
#138 = VERTEX_POINT ( 'NONE', #30 ) ;
#139 = CARTESIAN_POINT ( 'NONE',  ( 0.000000000000000000, 0.000000000000000000, 3.000000000000000000 ) ) ;
#140 = APPROVAL ( #15, 'NEURÈENÝ' ) ;
#141 = ORIENTED_EDGE ( 'NONE', *, *, #62, .T. ) ;
#142 = PRODUCT_DEFINITION_SHAPE ( 'NONE', 'NONE',  #123 ) ;
#143 = ORIENTED_EDGE ( 'NONE', *, *, #87, .F. ) ;
#144 = VERTEX_POINT ( 'NONE', #28 ) ;
#145 = DIRECTION ( 'NONE',  ( 0.000000000000000000, 0.000000000000000000, 1.000000000000000000 ) ) ;
#146 = CARTESIAN_POINT ( 'NONE',  ( 0.000000000000000000, 0.000000000000000000, 400.0000000000000000 ) ) ;
#147 = FACE_OUTER_BOUND ( 'NONE', #160, .T. ) ;
#148 = EDGE_CURVE ( 'NONE', #39, #197, #65, .T. ) ;
#149 = CC_DESIGN_APPROVAL ( #212, ( #123 ) ) ;
#150 = CARTESIAN_POINT ( 'NONE',  ( 0.000000000000000000, 0.000000000000000000, 400.0000000000000000 ) ) ;
#151 = DIRECTION ( 'NONE',  ( -0.000000000000000000, -0.000000000000000000, -1.000000000000000000 ) ) ;
#152 = ADVANCED_FACE ( 'NONE', ( #147 ), #85, .T. ) ;
#153 = CALENDAR_DATE ( 2023, 12, 2 ) ;
#154 = CIRCLE ( 'NONE', #13, 2.000000000000000000 ) ;
#155 = PERSON_AND_ORGANIZATION_ROLE ( 'creator' ) ;
#156 = LOCAL_TIME ( 13, 1, 53.00000000000000000, #75 ) ;
#157 = DIRECTION ( 'NONE',  ( 1.000000000000000000, 0.000000000000000000, 0.000000000000000000 ) ) ;
#158 = MECHANICAL_CONTEXT ( 'NONE', #42, 'mechanical' ) ;
#159 = APPROVAL_DATE_TIME ( #97, #161 ) ;
#160 = EDGE_LOOP ( 'NONE', ( #213, #117, #6, #183 ) ) ;
#161 = APPROVAL ( #137, 'NEURÈENÝ' ) ;
#162 = ORIENTED_EDGE ( 'NONE', *, *, #31, .F. ) ;
#163 = DIRECTION ( 'NONE',  ( 1.000000000000000000, 0.000000000000000000, 0.000000000000000000 ) ) ;
#164 = DIRECTION ( 'NONE',  ( 0.000000000000000000, 0.000000000000000000, 1.000000000000000000 ) ) ;
#165 = DIRECTION ( 'NONE',  ( 0.000000000000000000, 0.000000000000000000, 1.000000000000000000 ) ) ;
#166 = ADVANCED_FACE ( 'NONE', ( #125 ), #10, .T. ) ;
#167 = AXIS2_PLACEMENT_3D ( 'NONE', #91, #124, #12 ) ;
#168 = DIRECTION ( 'NONE',  ( 1.000000000000000000, 0.000000000000000000, 0.000000000000000000 ) ) ;
#169 = FACE_OUTER_BOUND ( 'NONE', #61, .T. ) ;
#170 = DIRECTION ( 'NONE',  ( -0.000000000000000000, -0.000000000000000000, -1.000000000000000000 ) ) ;
#171 =( LENGTH_UNIT ( ) NAMED_UNIT ( * ) SI_UNIT ( .MILLI., .METRE. ) );
#172 = PLANE ( 'NONE',  #250 ) ;
#173 = CC_DESIGN_APPROVAL ( #140, ( #236 ) ) ;
#174 = EDGE_CURVE ( 'NONE', #144, #22, #69, .T. ) ;
#175 = CALENDAR_DATE ( 2023, 12, 2 ) ;
#176 = PERSON_AND_ORGANIZATION ( #80, #224 ) ;
#177 = APPLICATION_CONTEXT ( 'configuration controlled 3d designs of mechanical parts and assemblies' ) ;
#178 = VECTOR ( 'NONE', #63, 1000.000000000000000 ) ;
#179 = VERTEX_POINT ( 'NONE', #45 ) ;
#180 = EDGE_LOOP ( 'NONE', ( #3, #78 ) ) ;
#181 = LINE ( 'NONE', #58, #178 ) ;
#182 = PRODUCT ( '3a4c', '3a4c', '', ( #158 ) ) ;
#183 = ORIENTED_EDGE ( 'NONE', *, *, #83, .T. ) ;
#184 = CARTESIAN_POINT ( 'NONE',  ( 2.000000000000000000, 2.449293598294706414E-16, 3.000000000000000000 ) ) ;
#185 = DIRECTION ( 'NONE',  ( 0.000000000000000000, 0.000000000000000000, 1.000000000000000000 ) ) ;
#186 = ADVANCED_FACE ( 'NONE', ( #169 ), #172, .F. ) ;
#187 = LOCAL_TIME ( 13, 1, 53.00000000000000000, #111 ) ;
#188 = UNCERTAINTY_MEASURE_WITH_UNIT (LENGTH_MEASURE( 1.000000000000000082E-05 ), #171, 'distance_accuracy_value', 'NONE');
#189 = CARTESIAN_POINT ( 'NONE',  ( 0.000000000000000000, 0.000000000000000000, 3.000000000000000000 ) ) ;
#190 = CARTESIAN_POINT ( 'NONE',  ( 0.000000000000000000, 0.000000000000000000, 400.0000000000000000 ) ) ;
#191 = FACE_OUTER_BOUND ( 'NONE', #5, .T. ) ;
#192 = ADVANCED_FACE ( 'NONE', ( #109, #105 ), #49, .T. ) ;
#193 = APPROVAL_ROLE ( '' ) ;
#194 = ADVANCED_BREP_SHAPE_REPRESENTATION ( '3a4c', ( #96, #17 ), #131 ) ;
#195 = CC_DESIGN_PERSON_AND_ORGANIZATION_ASSIGNMENT ( #54, #155, ( #236 ) ) ;
#196 = CARTESIAN_POINT ( 'NONE',  ( 0.000000000000000000, 0.000000000000000000, 3.000000000000000000 ) ) ;
#197 = VERTEX_POINT ( 'NONE', #244 ) ;
#198 = VERTEX_POINT ( 'NONE', #68 ) ;
#199 = EDGE_CURVE ( 'NONE', #144, #138, #59, .T. ) ;
#200 = EDGE_LOOP ( 'NONE', ( #26, #237, #79, #120 ) ) ;
#201 = ORIENTED_EDGE ( 'NONE', *, *, #83, .F. ) ;
#202 = CARTESIAN_POINT ( 'NONE',  ( 0.000000000000000000, 0.000000000000000000, 3.000000000000000000 ) ) ;
#203 = CYLINDRICAL_SURFACE ( 'NONE', #228, 2.000000000000000000 ) ;
#204 = AXIS2_PLACEMENT_3D ( 'NONE', #146, #51, #207 ) ;
#205 = DIRECTION ( 'NONE',  ( -0.000000000000000000, -0.000000000000000000, -1.000000000000000000 ) ) ;
#206 = DIRECTION ( 'NONE',  ( -1.000000000000000000, 0.000000000000000000, 0.000000000000000000 ) ) ;
#207 = DIRECTION ( 'NONE',  ( -1.000000000000000000, 0.000000000000000000, 0.000000000000000000 ) ) ;
#208 = ADVANCED_FACE ( 'NONE', ( #89 ), #103, .T. ) ;
#209 = DATE_AND_TIME ( #72, #66 ) ;
#210 = COORDINATED_UNIVERSAL_TIME_OFFSET ( 1, 0, .AHEAD. ) ;
#211 = PERSON_AND_ORGANIZATION ( #80, #224 ) ;
#212 = APPROVAL ( #113, 'NEURÈENÝ' ) ;
#213 = ORIENTED_EDGE ( 'NONE', *, *, #148, .F. ) ;
#214 = VECTOR ( 'NONE', #205, 1000.000000000000000 ) ;
#215 = DIRECTION ( 'NONE',  ( 1.000000000000000000, 0.000000000000000000, 0.000000000000000000 ) ) ;
#216 = EDGE_LOOP ( 'NONE', ( #1, #143 ) ) ;
#217 = EDGE_LOOP ( 'NONE', ( #99, #41 ) ) ;
#218 = AXIS2_PLACEMENT_3D ( 'NONE', #46, #226, #108 ) ;
#219 = ORIENTED_EDGE ( 'NONE', *, *, #240, .T. ) ;
#220 = DIRECTION ( 'NONE',  ( 1.000000000000000000, 0.000000000000000000, -0.000000000000000000 ) ) ;
#221 = CC_DESIGN_DATE_AND_TIME_ASSIGNMENT ( #209, #235, ( #123 ) ) ;
#222 = FACE_OUTER_BOUND ( 'NONE', #200, .T. ) ;
#223 = CARTESIAN_POINT ( 'NONE',  ( 0.000000000000000000, 0.000000000000000000, 0.000000000000000000 ) ) ;
#224 = ORGANIZATION ( 'NEURÈENÝ', 'NEURÈENÝ', '' ) ;
#225 = DIRECTION ( 'NONE',  ( 0.000000000000000000, 0.000000000000000000, 1.000000000000000000 ) ) ;
#226 = DIRECTION ( 'NONE',  ( -0.000000000000000000, -0.000000000000000000, -1.000000000000000000 ) ) ;
#227 = PERSON_AND_ORGANIZATION ( #80, #224 ) ;
#228 = AXIS2_PLACEMENT_3D ( 'NONE', #190, #243, #129 ) ;
#229 = PERSON_AND_ORGANIZATION ( #80, #224 ) ;
#230 = CC_DESIGN_PERSON_AND_ORGANIZATION_ASSIGNMENT ( #227, #135, ( #182 ) ) ;
#231 = APPROVAL_DATE_TIME ( #248, #140 ) ;
#232 = SECURITY_CLASSIFICATION_LEVEL ( 'unclassified' ) ;
#233 = AXIS2_PLACEMENT_3D ( 'NONE', #196, #165, #23 ) ;
#234 = AXIS2_PLACEMENT_3D ( 'NONE', #150, #145, #220 ) ;
#235 = DATE_TIME_ROLE ( 'creation_date' ) ;
#236 = PRODUCT_DEFINITION_FORMATION_WITH_SPECIFIED_SOURCE ( 'LIBOVOLNÝ', '', #182, .NOT_KNOWN. ) ;
#237 = ORIENTED_EDGE ( 'NONE', *, *, #148, .T. ) ;
#238 = CARTESIAN_POINT ( 'NONE',  ( 4.000000000000000000, 4.898587196589412829E-16, 3.000000000000000000 ) ) ;
#239 = CARTESIAN_POINT ( 'NONE',  ( 0.000000000000000000, 0.000000000000000000, 400.0000000000000000 ) ) ;
#240 = EDGE_CURVE ( 'NONE', #138, #122, #70, .T. ) ;
#241 = DIRECTION ( 'NONE',  ( 1.000000000000000000, 0.000000000000000000, 0.000000000000000000 ) ) ;
#242 = AXIS2_PLACEMENT_3D ( 'NONE', #139, #44, #215 ) ;
#243 = DIRECTION ( 'NONE',  ( -0.000000000000000000, -0.000000000000000000, -1.000000000000000000 ) ) ;
#244 = CARTESIAN_POINT ( 'NONE',  ( 4.000000000000000000, 4.898587196589412829E-16, 0.000000000000000000 ) ) ;
#245 = DIRECTION ( 'NONE',  ( 0.000000000000000000, 0.000000000000000000, 1.000000000000000000 ) ) ;
#246 = ADVANCED_FACE ( 'NONE', ( #222 ), #126, .T. ) ;
#247 = DIRECTION ( 'NONE',  ( 1.000000000000000000, 0.000000000000000000, 0.000000000000000000 ) ) ;
#248 = DATE_AND_TIME ( #175, #156 ) ;
#249 = AXIS2_PLACEMENT_3D ( 'NONE', #67, #245, #168 ) ;
#250 = AXIS2_PLACEMENT_3D ( 'NONE', #223, #225, #33 ) ;
#251 = CC_DESIGN_APPROVAL ( #161, ( #136 ) ) ;
#252 = APPROVAL_ROLE ( '' ) ;
#253 = APPROVAL_ROLE ( '' ) ;
#254 = CC_DESIGN_SECURITY_CLASSIFICATION ( #136, ( #236 ) ) ;
#255 = CARTESIAN_POINT ( 'NONE',  ( -2.000000000000000000, 0.000000000000000000, 3.000000000000000000 ) ) ;
ENDSEC;
END-ISO-10303-21;
