ISO-10303-21;
HEADER;
FILE_DESCRIPTION (( 'STEP AP203' ),
    '1' );
FILE_NAME ('cf6b.STEP',
    '2023-02-12T11:32:45',
    ( '' ),
    ( '' ),
    'SwSTEP 2.0',
    'SolidWorks 2019',
    '' );
FILE_SCHEMA (( 'CONFIG_CONTROL_DESIGN' ));
ENDSEC;

DATA;
#1 = EDGE_CURVE ( 'NONE', #161, #232, #217, .T. ) ;
#2 = FACE_OUTER_BOUND ( 'NONE', #125, .T. ) ;
#3 = APPLICATION_PROTOCOL_DEFINITION ( 'international standard', 'config_control_design', 1994, #132 ) ;
#4 = DIRECTION ( 'NONE',  ( 0.000000000000000000, 0.000000000000000000, 1.000000000000000000 ) ) ;
#5 = DIRECTION ( 'NONE',  ( 0.000000000000000000, 0.000000000000000000, 1.000000000000000000 ) ) ;
#6 = AXIS2_PLACEMENT_3D ( 'NONE', #12, #245, #35 ) ;
#7 = CYLINDRICAL_SURFACE ( 'NONE', #38, 6.000000000000000888 ) ;
#8 = APPLICATION_CONTEXT ( 'configuration controlled 3d designs of mechanical parts and assemblies' ) ;
#9 = VECTOR ( 'NONE', #122, 1000.000000000000000 ) ;
#10 = CC_DESIGN_APPROVAL ( #46, ( #61 ) ) ;
#11 = LINE ( 'NONE', #152, #9 ) ;
#12 = CARTESIAN_POINT ( 'NONE',  ( 0.000000000000000000, 0.000000000000000000, 5.000000000000000000 ) ) ;
#13 = CARTESIAN_POINT ( 'NONE',  ( 3.100000000000000089, 3.796405077356794918E-16, 5.000000000000000000 ) ) ;
#14 = ORIENTED_EDGE ( 'NONE', *, *, #50, .F. ) ;
#15 = APPROVAL_STATUS ( 'not_yet_approved' ) ;
#16 = CARTESIAN_POINT ( 'NONE',  ( 6.000000000000000888, 7.347880794884120722E-16, 0.000000000000000000 ) ) ;
#17 = APPROVAL_DATE_TIME ( #206, #46 ) ;
#18 = PRODUCT_DEFINITION ( 'NEZNÁMÝ', '', #237, #51 ) ;
#19 = EDGE_LOOP ( 'NONE', ( #240, #180, #108, #252 ) ) ;
#20 = FACE_OUTER_BOUND ( 'NONE', #93, .T. ) ;
#21 = LINE ( 'NONE', #91, #95 ) ;
#22 = VERTEX_POINT ( 'NONE', #13 ) ;
#23 = DIRECTION ( 'NONE',  ( -0.000000000000000000, -0.000000000000000000, -1.000000000000000000 ) ) ;
#24 = CC_DESIGN_PERSON_AND_ORGANIZATION_ASSIGNMENT ( #40, #164, ( #226 ) ) ;
#25 = CARTESIAN_POINT ( 'NONE',  ( -3.100000000000000089, 0.000000000000000000, 250.0000000000000000 ) ) ;
#26 = ORIENTED_EDGE ( 'NONE', *, *, #242, .F. ) ;
#27 = AXIS2_PLACEMENT_3D ( 'NONE', #155, #54, #37 ) ;
#28 = DIRECTION ( 'NONE',  ( 0.000000000000000000, 0.000000000000000000, 1.000000000000000000 ) ) ;
#29 = CARTESIAN_POINT ( 'NONE',  ( -6.000000000000000888, 0.000000000000000000, 0.000000000000000000 ) ) ;
#30 = AXIS2_PLACEMENT_3D ( 'NONE', #42, #196, #176 ) ;
#31 = CALENDAR_DATE ( 2023, 12, 2 ) ;
#32 = PERSON_AND_ORGANIZATION ( #56, #201 ) ;
#33 = ORIENTED_EDGE ( 'NONE', *, *, #62, .F. ) ;
#34 = CARTESIAN_POINT ( 'NONE',  ( 0.000000000000000000, 0.000000000000000000, 5.000000000000000000 ) ) ;
#35 = DIRECTION ( 'NONE',  ( 1.000000000000000000, 0.000000000000000000, 0.000000000000000000 ) ) ;
#36 = CIRCLE ( 'NONE', #199, 3.100000000000000089 ) ;
#37 = DIRECTION ( 'NONE',  ( 1.000000000000000000, 0.000000000000000000, -0.000000000000000000 ) ) ;
#38 = AXIS2_PLACEMENT_3D ( 'NONE', #117, #80, #231 ) ;
#39 = CALENDAR_DATE ( 2023, 12, 2 ) ;
#40 = PERSON_AND_ORGANIZATION ( #56, #201 ) ;
#41 = CYLINDRICAL_SURFACE ( 'NONE', #188, 6.000000000000000888 ) ;
#42 = CARTESIAN_POINT ( 'NONE',  ( 0.000000000000000000, 0.000000000000000000, 0.000000000000000000 ) ) ;
#43 = AXIS2_PLACEMENT_3D ( 'NONE', #170, #28, #112 ) ;
#44 = EDGE_CURVE ( 'NONE', #119, #83, #11, .T. ) ;
#45 = ORIENTED_EDGE ( 'NONE', *, *, #195, .F. ) ;
#46 = APPROVAL ( #223, 'NEURÈENÝ' ) ;
#47 = EDGE_LOOP ( 'NONE', ( #74, #146 ) ) ;
#48 = CIRCLE ( 'NONE', #211, 6.000000000000000888 ) ;
#49 = CARTESIAN_POINT ( 'NONE',  ( -6.000000000000000888, 0.000000000000000000, 5.000000000000000000 ) ) ;
#50 = EDGE_CURVE ( 'NONE', #232, #161, #48, .T. ) ;
#51 = DESIGN_CONTEXT ( 'detailed design', #8, 'design' ) ;
#52 = PERSON_AND_ORGANIZATION ( #56, #201 ) ;
#53 = CALENDAR_DATE ( 2023, 12, 2 ) ;
#54 = DIRECTION ( 'NONE',  ( 0.000000000000000000, 0.000000000000000000, 1.000000000000000000 ) ) ;
#55 = ORIENTED_EDGE ( 'NONE', *, *, #107, .T. ) ;
#56 = PERSON ( 'NEURÈENÝ', 'NEURÈENÝ', 'NEURÈENÝ', ('NEURÈENÝ'), ('NEURÈENÝ'), ('NEURÈENÝ') ) ;
#57 = CIRCLE ( 'NONE', #192, 6.000000000000000888 ) ;
#58 = EDGE_CURVE ( 'NONE', #119, #227, #36, .T. ) ;
#59 = DIRECTION ( 'NONE',  ( 1.000000000000000000, 0.000000000000000000, 0.000000000000000000 ) ) ;
#60 = ORIENTED_EDGE ( 'NONE', *, *, #50, .T. ) ;
#61 = SECURITY_CLASSIFICATION ( '', '', #92 ) ;
#62 = EDGE_CURVE ( 'NONE', #161, #169, #205, .T. ) ;
#63 = ORIENTED_EDGE ( 'NONE', *, *, #62, .T. ) ;
#64 = COORDINATED_UNIVERSAL_TIME_OFFSET ( 1, 0, .AHEAD. ) ;
#65 = ADVANCED_BREP_SHAPE_REPRESENTATION ( 'cf6b', ( #149, #185 ), #163 ) ;
#66 = ORIENTED_EDGE ( 'NONE', *, *, #1, .F. ) ;
#67 = CARTESIAN_POINT ( 'NONE',  ( -3.100000000000000089, 0.000000000000000000, 5.000000000000000000 ) ) ;
#68 = VERTEX_POINT ( 'NONE', #16 ) ;
#69 = CARTESIAN_POINT ( 'NONE',  ( 0.000000000000000000, 0.000000000000000000, 5.000000000000000000 ) ) ;
#70 = VECTOR ( 'NONE', #90, 1000.000000000000000 ) ;
#71 = CC_DESIGN_PERSON_AND_ORGANIZATION_ASSIGNMENT ( #52, #124, ( #61 ) ) ;
#72 = CIRCLE ( 'NONE', #6, 3.100000000000000089 ) ;
#73 = DIRECTION ( 'NONE',  ( 1.000000000000000000, 0.000000000000000000, 0.000000000000000000 ) ) ;
#74 = ORIENTED_EDGE ( 'NONE', *, *, #82, .F. ) ;
#75 = UNCERTAINTY_MEASURE_WITH_UNIT (LENGTH_MEASURE( 1.000000000000000082E-05 ), #140, 'distance_accuracy_value', 'NONE');
#76 = DIRECTION ( 'NONE',  ( 0.000000000000000000, 0.000000000000000000, 1.000000000000000000 ) ) ;
#77 = CC_DESIGN_SECURITY_CLASSIFICATION ( #61, ( #237 ) ) ;
#78 = CARTESIAN_POINT ( 'NONE',  ( 3.100000000000000089, 3.796405077356794918E-16, 250.0000000000000000 ) ) ;
#79 = SHAPE_DEFINITION_REPRESENTATION ( #159, #65 ) ;
#80 = DIRECTION ( 'NONE',  ( -0.000000000000000000, -0.000000000000000000, -1.000000000000000000 ) ) ;
#81 = DIRECTION ( 'NONE',  ( 1.000000000000000000, 0.000000000000000000, 0.000000000000000000 ) ) ;
#82 = EDGE_CURVE ( 'NONE', #83, #22, #72, .T. ) ;
#83 = VERTEX_POINT ( 'NONE', #67 ) ;
#84 = DIRECTION ( 'NONE',  ( 1.000000000000000000, 0.000000000000000000, -0.000000000000000000 ) ) ;
#85 = CALENDAR_DATE ( 2023, 12, 2 ) ;
#86 = ORIENTED_EDGE ( 'NONE', *, *, #233, .T. ) ;
#87 = COORDINATED_UNIVERSAL_TIME_OFFSET ( 1, 0, .AHEAD. ) ;
#88 = FACE_OUTER_BOUND ( 'NONE', #198, .T. ) ;
#89 = DATE_TIME_ROLE ( 'classification_date' ) ;
#90 = DIRECTION ( 'NONE',  ( -0.000000000000000000, -0.000000000000000000, -1.000000000000000000 ) ) ;
#91 = CARTESIAN_POINT ( 'NONE',  ( 6.000000000000000888, 7.347880794884120722E-16, 5.000000000000000000 ) ) ;
#92 = SECURITY_CLASSIFICATION_LEVEL ( 'unclassified' ) ;
#93 = EDGE_LOOP ( 'NONE', ( #45, #26 ) ) ;
#94 = CARTESIAN_POINT ( 'NONE',  ( 0.000000000000000000, 0.000000000000000000, 250.0000000000000000 ) ) ;
#95 = VECTOR ( 'NONE', #253, 1000.000000000000000 ) ;
#96 = PLANE ( 'NONE',  #172 ) ;
#97 = CARTESIAN_POINT ( 'NONE',  ( 0.000000000000000000, 0.000000000000000000, 0.000000000000000000 ) ) ;
#98 = CIRCLE ( 'NONE', #241, 3.100000000000000089 ) ;
#99 = FACE_BOUND ( 'NONE', #47, .T. ) ;
#100 = ADVANCED_FACE ( 'NONE', ( #138 ), #216, .T. ) ;
#101 = DIRECTION ( 'NONE',  ( 1.000000000000000000, 0.000000000000000000, 0.000000000000000000 ) ) ;
#102 = DIRECTION ( 'NONE',  ( 1.000000000000000000, 0.000000000000000000, 0.000000000000000000 ) ) ;
#103 = ADVANCED_FACE ( 'NONE', ( #142 ), #220, .T. ) ;
#104 = DATE_AND_TIME ( #127, #215 ) ;
#105 = CARTESIAN_POINT ( 'NONE',  ( -6.000000000000000888, 0.000000000000000000, 5.000000000000000000 ) ) ;
#106 = COORDINATED_UNIVERSAL_TIME_OFFSET ( 1, 0, .AHEAD. ) ;
#107 = EDGE_CURVE ( 'NONE', #232, #68, #21, .T. ) ;
#108 = ORIENTED_EDGE ( 'NONE', *, *, #44, .T. ) ;
#109 = PERSON_AND_ORGANIZATION_ROLE ( 'design_supplier' ) ;
#110 = CARTESIAN_POINT ( 'NONE',  ( 0.000000000000000000, 0.000000000000000000, 250.0000000000000000 ) ) ;
#111 = LOCAL_TIME ( 12, 32, 45.00000000000000000, #87 ) ;
#112 = DIRECTION ( 'NONE',  ( 1.000000000000000000, 0.000000000000000000, 0.000000000000000000 ) ) ;
#113 = DIRECTION ( 'NONE',  ( -0.000000000000000000, -0.000000000000000000, -1.000000000000000000 ) ) ;
#114 = CIRCLE ( 'NONE', #43, 3.100000000000000089 ) ;
#115 = APPROVAL_PERSON_ORGANIZATION ( #218, #123, #207 ) ;
#116 = PERSON_AND_ORGANIZATION_ROLE ( 'creator' ) ;
#117 = CARTESIAN_POINT ( 'NONE',  ( 0.000000000000000000, 0.000000000000000000, 5.000000000000000000 ) ) ;
#118 = DIRECTION ( 'NONE',  ( -1.000000000000000000, 0.000000000000000000, 0.000000000000000000 ) ) ;
#119 = VERTEX_POINT ( 'NONE', #25 ) ;
#120 = LOCAL_TIME ( 12, 32, 45.00000000000000000, #147 ) ;
#121 = EDGE_LOOP ( 'NONE', ( #249, #66, #63, #166 ) ) ;
#122 = DIRECTION ( 'NONE',  ( -0.000000000000000000, -0.000000000000000000, -1.000000000000000000 ) ) ;
#123 = APPROVAL ( #15, 'NEURÈENÝ' ) ;
#124 = PERSON_AND_ORGANIZATION_ROLE ( 'classification_officer' ) ;
#125 = EDGE_LOOP ( 'NONE', ( #156, #131 ) ) ;
#126 = APPROVAL_ROLE ( '' ) ;
#127 = CALENDAR_DATE ( 2023, 12, 2 ) ;
#128 = EDGE_CURVE ( 'NONE', #227, #119, #98, .T. ) ;
#129 = AXIS2_PLACEMENT_3D ( 'NONE', #97, #4, #81 ) ;
#130 = LOCAL_TIME ( 12, 32, 45.00000000000000000, #64 ) ;
#131 = ORIENTED_EDGE ( 'NONE', *, *, #128, .T. ) ;
#132 = APPLICATION_CONTEXT ( 'configuration controlled 3d designs of mechanical parts and assemblies' ) ;
#133 = CLOSED_SHELL ( 'NONE', ( #103, #168, #145, #150, #214, #100, #190 ) ) ;
#134 = CC_DESIGN_DATE_AND_TIME_ASSIGNMENT ( #104, #89, ( #61 ) ) ;
#135 = CARTESIAN_POINT ( 'NONE',  ( 0.000000000000000000, 0.000000000000000000, 5.000000000000000000 ) ) ;
#136 = AXIS2_PLACEMENT_3D ( 'NONE', #34, #200, #101 ) ;
#137 = APPROVAL_DATE_TIME ( #234, #230 ) ;
#138 = FACE_OUTER_BOUND ( 'NONE', #19, .T. ) ;
#139 = APPROVAL_PERSON_ORGANIZATION ( #144, #46, #126 ) ;
#140 =( LENGTH_UNIT ( ) NAMED_UNIT ( * ) SI_UNIT ( .MILLI., .METRE. ) );
#141 = DIRECTION ( 'NONE',  ( 0.000000000000000000, 0.000000000000000000, 1.000000000000000000 ) ) ;
#142 = FACE_OUTER_BOUND ( 'NONE', #235, .T. ) ;
#143 = APPROVAL_DATE_TIME ( #251, #123 ) ;
#144 = PERSON_AND_ORGANIZATION ( #56, #201 ) ;
#145 = ADVANCED_FACE ( 'NONE', ( #255 ), #41, .T. ) ;
#146 = ORIENTED_EDGE ( 'NONE', *, *, #203, .F. ) ;
#147 = COORDINATED_UNIVERSAL_TIME_OFFSET ( 1, 0, .AHEAD. ) ;
#148 = CARTESIAN_POINT ( 'NONE',  ( 0.000000000000000000, 0.000000000000000000, 0.000000000000000000 ) ) ;
#149 = MANIFOLD_SOLID_BREP ( 'Pøidat vysunutím3', #133 ) ;
#150 = ADVANCED_FACE ( 'NONE', ( #99, #88 ), #183, .T. ) ;
#151 = DIRECTION ( 'NONE',  ( -0.000000000000000000, -0.000000000000000000, -1.000000000000000000 ) ) ;
#152 = CARTESIAN_POINT ( 'NONE',  ( -3.100000000000000089, 0.000000000000000000, 250.0000000000000000 ) ) ;
#153 = DATE_AND_TIME ( #85, #111 ) ;
#154 = LINE ( 'NONE', #78, #158 ) ;
#155 = CARTESIAN_POINT ( 'NONE',  ( 0.000000000000000000, 0.000000000000000000, 5.000000000000000000 ) ) ;
#156 = ORIENTED_EDGE ( 'NONE', *, *, #58, .T. ) ;
#157 = CC_DESIGN_PERSON_AND_ORGANIZATION_ASSIGNMENT ( #221, #109, ( #237 ) ) ;
#158 = VECTOR ( 'NONE', #151, 1000.000000000000000 ) ;
#159 = PRODUCT_DEFINITION_SHAPE ( 'NONE', 'NONE',  #18 ) ;
#160 =( NAMED_UNIT ( * ) PLANE_ANGLE_UNIT ( ) SI_UNIT ( $, .RADIAN. ) );
#161 = VERTEX_POINT ( 'NONE', #49 ) ;
#162 = PERSON_AND_ORGANIZATION ( #56, #201 ) ;
#163 =( GEOMETRIC_REPRESENTATION_CONTEXT ( 3 ) GLOBAL_UNCERTAINTY_ASSIGNED_CONTEXT ( ( #75 ) ) GLOBAL_UNIT_ASSIGNED_CONTEXT ( ( #140, #160, #246 ) ) REPRESENTATION_CONTEXT ( 'NONE', 'WORKASPACE' ) );
#164 = PERSON_AND_ORGANIZATION_ROLE ( 'design_owner' ) ;
#165 = DIRECTION ( 'NONE',  ( 1.000000000000000000, 0.000000000000000000, 0.000000000000000000 ) ) ;
#166 = ORIENTED_EDGE ( 'NONE', *, *, #195, .T. ) ;
#167 = PLANE ( 'NONE',  #30 ) ;
#168 = ADVANCED_FACE ( 'NONE', ( #254 ), #7, .T. ) ;
#169 = VERTEX_POINT ( 'NONE', #29 ) ;
#170 = CARTESIAN_POINT ( 'NONE',  ( 0.000000000000000000, 0.000000000000000000, 5.000000000000000000 ) ) ;
#171 = ORIENTED_EDGE ( 'NONE', *, *, #242, .T. ) ;
#172 = AXIS2_PLACEMENT_3D ( 'NONE', #174, #212, #84 ) ;
#173 = PRODUCT_RELATED_PRODUCT_CATEGORY ( 'detail', '', ( #226 ) ) ;
#174 = CARTESIAN_POINT ( 'NONE',  ( 0.000000000000000000, 0.000000000000000000, 250.0000000000000000 ) ) ;
#175 = CC_DESIGN_PERSON_AND_ORGANIZATION_ASSIGNMENT ( #162, #187, ( #237 ) ) ;
#176 = DIRECTION ( 'NONE',  ( 1.000000000000000000, 0.000000000000000000, -0.000000000000000000 ) ) ;
#177 = EDGE_LOOP ( 'NONE', ( #14, #55, #171, #33 ) ) ;
#178 = DIRECTION ( 'NONE',  ( -0.000000000000000000, -0.000000000000000000, -1.000000000000000000 ) ) ;
#179 = CARTESIAN_POINT ( 'NONE',  ( 3.100000000000000089, 3.796405077356794918E-16, 250.0000000000000000 ) ) ;
#180 = ORIENTED_EDGE ( 'NONE', *, *, #58, .F. ) ;
#181 = DIRECTION ( 'NONE',  ( 1.000000000000000000, 0.000000000000000000, 0.000000000000000000 ) ) ;
#182 = ORIENTED_EDGE ( 'NONE', *, *, #128, .F. ) ;
#183 = PLANE ( 'NONE',  #27 ) ;
#184 = DIRECTION ( 'NONE',  ( -1.000000000000000000, 0.000000000000000000, 0.000000000000000000 ) ) ;
#185 = AXIS2_PLACEMENT_3D ( 'NONE', #148, #5, #59 ) ;
#186 = CARTESIAN_POINT ( 'NONE',  ( 0.000000000000000000, 0.000000000000000000, 250.0000000000000000 ) ) ;
#187 = PERSON_AND_ORGANIZATION_ROLE ( 'creator' ) ;
#188 = AXIS2_PLACEMENT_3D ( 'NONE', #135, #23, #118 ) ;
#189 = APPLICATION_PROTOCOL_DEFINITION ( 'international standard', 'config_control_design', 1994, #8 ) ;
#190 = ADVANCED_FACE ( 'NONE', ( #2 ), #96, .T. ) ;
#191 = APPROVAL_STATUS ( 'not_yet_approved' ) ;
#192 = AXIS2_PLACEMENT_3D ( 'NONE', #250, #224, #102 ) ;
#193 = APPROVAL_PERSON_ORGANIZATION ( #32, #230, #236 ) ;
#194 = ORIENTED_EDGE ( 'NONE', *, *, #44, .F. ) ;
#195 = EDGE_CURVE ( 'NONE', #169, #68, #243, .T. ) ;
#196 = DIRECTION ( 'NONE',  ( 0.000000000000000000, 0.000000000000000000, 1.000000000000000000 ) ) ;
#197 = CC_DESIGN_APPROVAL ( #230, ( #18 ) ) ;
#198 = EDGE_LOOP ( 'NONE', ( #204, #60 ) ) ;
#199 = AXIS2_PLACEMENT_3D ( 'NONE', #244, #247, #73 ) ;
#200 = DIRECTION ( 'NONE',  ( 0.000000000000000000, 0.000000000000000000, 1.000000000000000000 ) ) ;
#201 = ORGANIZATION ( 'NEURÈENÝ', 'NEURÈENÝ', '' ) ;
#202 = COORDINATED_UNIVERSAL_TIME_OFFSET ( 1, 0, .AHEAD. ) ;
#203 = EDGE_CURVE ( 'NONE', #22, #83, #114, .T. ) ;
#204 = ORIENTED_EDGE ( 'NONE', *, *, #1, .T. ) ;
#205 = LINE ( 'NONE', #105, #70 ) ;
#206 = DATE_AND_TIME ( #53, #219 ) ;
#207 = APPROVAL_ROLE ( '' ) ;
#208 = CC_DESIGN_PERSON_AND_ORGANIZATION_ASSIGNMENT ( #213, #116, ( #18 ) ) ;
#209 = MECHANICAL_CONTEXT ( 'NONE', #132, 'mechanical' ) ;
#210 = AXIS2_PLACEMENT_3D ( 'NONE', #110, #113, #225 ) ;
#211 = AXIS2_PLACEMENT_3D ( 'NONE', #69, #141, #181 ) ;
#212 = DIRECTION ( 'NONE',  ( 0.000000000000000000, 0.000000000000000000, 1.000000000000000000 ) ) ;
#213 = PERSON_AND_ORGANIZATION ( #56, #201 ) ;
#214 = ADVANCED_FACE ( 'NONE', ( #20 ), #167, .F. ) ;
#215 = LOCAL_TIME ( 12, 32, 45.00000000000000000, #202 ) ;
#216 = CYLINDRICAL_SURFACE ( 'NONE', #248, 3.100000000000000089 ) ;
#217 = CIRCLE ( 'NONE', #136, 6.000000000000000888 ) ;
#218 = PERSON_AND_ORGANIZATION ( #56, #201 ) ;
#219 = LOCAL_TIME ( 12, 32, 45.00000000000000000, #106 ) ;
#220 = CYLINDRICAL_SURFACE ( 'NONE', #210, 3.100000000000000089 ) ;
#221 = PERSON_AND_ORGANIZATION ( #56, #201 ) ;
#222 = CC_DESIGN_DATE_AND_TIME_ASSIGNMENT ( #153, #239, ( #18 ) ) ;
#223 = APPROVAL_STATUS ( 'not_yet_approved' ) ;
#224 = DIRECTION ( 'NONE',  ( 0.000000000000000000, 0.000000000000000000, 1.000000000000000000 ) ) ;
#225 = DIRECTION ( 'NONE',  ( -1.000000000000000000, 0.000000000000000000, 0.000000000000000000 ) ) ;
#226 = PRODUCT ( 'cf6b', 'cf6b', '', ( #209 ) ) ;
#227 = VERTEX_POINT ( 'NONE', #179 ) ;
#228 = CC_DESIGN_APPROVAL ( #123, ( #237 ) ) ;
#229 = ORIENTED_EDGE ( 'NONE', *, *, #203, .T. ) ;
#230 = APPROVAL ( #191, 'NEURÈENÝ' ) ;
#231 = DIRECTION ( 'NONE',  ( -1.000000000000000000, 0.000000000000000000, 0.000000000000000000 ) ) ;
#232 = VERTEX_POINT ( 'NONE', #238 ) ;
#233 = EDGE_CURVE ( 'NONE', #227, #22, #154, .T. ) ;
#234 = DATE_AND_TIME ( #31, #130 ) ;
#235 = EDGE_LOOP ( 'NONE', ( #182, #86, #229, #194 ) ) ;
#236 = APPROVAL_ROLE ( '' ) ;
#237 = PRODUCT_DEFINITION_FORMATION_WITH_SPECIFIED_SOURCE ( 'LIBOVOLNÝ', '', #226, .NOT_KNOWN. ) ;
#238 = CARTESIAN_POINT ( 'NONE',  ( 6.000000000000000888, 7.347880794884120722E-16, 5.000000000000000000 ) ) ;
#239 = DATE_TIME_ROLE ( 'creation_date' ) ;
#240 = ORIENTED_EDGE ( 'NONE', *, *, #233, .F. ) ;
#241 = AXIS2_PLACEMENT_3D ( 'NONE', #94, #76, #165 ) ;
#242 = EDGE_CURVE ( 'NONE', #68, #169, #57, .T. ) ;
#243 = CIRCLE ( 'NONE', #129, 6.000000000000000888 ) ;
#244 = CARTESIAN_POINT ( 'NONE',  ( 0.000000000000000000, 0.000000000000000000, 250.0000000000000000 ) ) ;
#245 = DIRECTION ( 'NONE',  ( 0.000000000000000000, 0.000000000000000000, 1.000000000000000000 ) ) ;
#246 =( NAMED_UNIT ( * ) SI_UNIT ( $, .STERADIAN. ) SOLID_ANGLE_UNIT ( ) );
#247 = DIRECTION ( 'NONE',  ( 0.000000000000000000, 0.000000000000000000, 1.000000000000000000 ) ) ;
#248 = AXIS2_PLACEMENT_3D ( 'NONE', #186, #178, #184 ) ;
#249 = ORIENTED_EDGE ( 'NONE', *, *, #107, .F. ) ;
#250 = CARTESIAN_POINT ( 'NONE',  ( 0.000000000000000000, 0.000000000000000000, 0.000000000000000000 ) ) ;
#251 = DATE_AND_TIME ( #39, #120 ) ;
#252 = ORIENTED_EDGE ( 'NONE', *, *, #82, .T. ) ;
#253 = DIRECTION ( 'NONE',  ( -0.000000000000000000, -0.000000000000000000, -1.000000000000000000 ) ) ;
#254 = FACE_OUTER_BOUND ( 'NONE', #177, .T. ) ;
#255 = FACE_OUTER_BOUND ( 'NONE', #121, .T. ) ;
ENDSEC;
END-ISO-10303-21;
