ISO-10303-21;
HEADER;
FILE_DESCRIPTION (( 'STEP AP203' ),
    '1' );
FILE_NAME ('c7c0.STEP',
    '2023-02-12T11:10:49',
    ( '' ),
    ( '' ),
    'SwSTEP 2.0',
    'SolidWorks 2019',
    '' );
FILE_SCHEMA (( 'CONFIG_CONTROL_DESIGN' ));
ENDSEC;

DATA;
#1 =( LENGTH_UNIT ( ) NAMED_UNIT ( * ) SI_UNIT ( .MILLI., .METRE. ) );
#2 = PERSON_AND_ORGANIZATION ( #87, #51 ) ;
#3 = DATE_AND_TIME ( #81, #129 ) ;
#4 = AXIS2_PLACEMENT_3D ( 'NONE', #127, #10, #90 ) ;
#5 = ORIENTED_EDGE ( 'NONE', *, *, #140, .F. ) ;
#6 = EDGE_CURVE ( 'NONE', #245, #249, #110, .T. ) ;
#7 = AXIS2_PLACEMENT_3D ( 'NONE', #69, #91, #134 ) ;
#8 = CALENDAR_DATE ( 2023, 12, 2 ) ;
#9 = PERSON_AND_ORGANIZATION_ROLE ( 'creator' ) ;
#10 = DIRECTION ( 'NONE',  ( 0.000000000000000000, 0.000000000000000000, 1.000000000000000000 ) ) ;
#11 = AXIS2_PLACEMENT_3D ( 'NONE', #131, #228, #233 ) ;
#12 = EDGE_LOOP ( 'NONE', ( #106, #130, #107, #105 ) ) ;
#13 = CARTESIAN_POINT ( 'NONE',  ( -7.000000000000000000, 0.000000000000000000, 5.000000000000000000 ) ) ;
#14 = ORIENTED_EDGE ( 'NONE', *, *, #68, .F. ) ;
#15 = CARTESIAN_POINT ( 'NONE',  ( 4.250000000000000000, 5.204748896376250699E-16, 160.0000000000000000 ) ) ;
#16 = DIRECTION ( 'NONE',  ( 1.000000000000000000, 0.000000000000000000, -0.000000000000000000 ) ) ;
#17 = AXIS2_PLACEMENT_3D ( 'NONE', #45, #126, #163 ) ;
#18 = CARTESIAN_POINT ( 'NONE',  ( 0.000000000000000000, 0.000000000000000000, 0.000000000000000000 ) ) ;
#19 = FACE_OUTER_BOUND ( 'NONE', #24, .T. ) ;
#20 = APPROVAL_STATUS ( 'not_yet_approved' ) ;
#21 = APPROVAL_ROLE ( '' ) ;
#22 = CC_DESIGN_APPROVAL ( #72, ( #158 ) ) ;
#23 = COORDINATED_UNIVERSAL_TIME_OFFSET ( 1, 0, .AHEAD. ) ;
#24 = EDGE_LOOP ( 'NONE', ( #39, #172, #86, #14 ) ) ;
#25 = EDGE_CURVE ( 'NONE', #245, #100, #187, .T. ) ;
#26 = DIRECTION ( 'NONE',  ( 1.000000000000000000, 0.000000000000000000, 0.000000000000000000 ) ) ;
#27 = AXIS2_PLACEMENT_3D ( 'NONE', #219, #128, #207 ) ;
#28 = ORIENTED_EDGE ( 'NONE', *, *, #25, .T. ) ;
#29 = DIRECTION ( 'NONE',  ( -0.000000000000000000, -0.000000000000000000, -1.000000000000000000 ) ) ;
#30 = EDGE_CURVE ( 'NONE', #201, #146, #177, .T. ) ;
#31 = CARTESIAN_POINT ( 'NONE',  ( 0.000000000000000000, 0.000000000000000000, 160.0000000000000000 ) ) ;
#32 = VECTOR ( 'NONE', #29, 1000.000000000000000 ) ;
#33 = DIRECTION ( 'NONE',  ( 1.000000000000000000, 0.000000000000000000, 0.000000000000000000 ) ) ;
#34 = CARTESIAN_POINT ( 'NONE',  ( 4.250000000000000000, 5.204748896376250699E-16, 160.0000000000000000 ) ) ;
#35 = APPROVAL ( #58, 'NEURÈENÝ' ) ;
#36 = CARTESIAN_POINT ( 'NONE',  ( -7.000000000000000000, 0.000000000000000000, 5.000000000000000000 ) ) ;
#37 = DIRECTION ( 'NONE',  ( 0.000000000000000000, 0.000000000000000000, 1.000000000000000000 ) ) ;
#38 = UNCERTAINTY_MEASURE_WITH_UNIT (LENGTH_MEASURE( 1.000000000000000082E-05 ), #1, 'distance_accuracy_value', 'NONE');
#39 = ORIENTED_EDGE ( 'NONE', *, *, #208, .F. ) ;
#40 = CARTESIAN_POINT ( 'NONE',  ( 0.000000000000000000, 0.000000000000000000, 5.000000000000000000 ) ) ;
#41 = AXIS2_PLACEMENT_3D ( 'NONE', #95, #255, #232 ) ;
#42 = PLANE ( 'NONE',  #17 ) ;
#43 = ORIENTED_EDGE ( 'NONE', *, *, #225, .F. ) ;
#44 = DIRECTION ( 'NONE',  ( 1.000000000000000000, 0.000000000000000000, 0.000000000000000000 ) ) ;
#45 = CARTESIAN_POINT ( 'NONE',  ( 0.000000000000000000, 0.000000000000000000, 0.000000000000000000 ) ) ;
#46 = VECTOR ( 'NONE', #230, 1000.000000000000000 ) ;
#47 = CARTESIAN_POINT ( 'NONE',  ( -4.250000000000000000, 0.000000000000000000, 160.0000000000000000 ) ) ;
#48 = CARTESIAN_POINT ( 'NONE',  ( 7.000000000000000000, 8.572527594031473190E-16, 5.000000000000000000 ) ) ;
#49 = PRODUCT_DEFINITION_FORMATION_WITH_SPECIFIED_SOURCE ( 'LIBOVOLNÝ', '', #52, .NOT_KNOWN. ) ;
#50 = DATE_TIME_ROLE ( 'classification_date' ) ;
#51 = ORGANIZATION ( 'NEURÈENÝ', 'NEURÈENÝ', '' ) ;
#52 = PRODUCT ( 'c7c0', 'c7c0', '', ( #211 ) ) ;
#53 = PERSON_AND_ORGANIZATION ( #87, #51 ) ;
#54 = PERSON_AND_ORGANIZATION ( #87, #51 ) ;
#55 = ORIENTED_EDGE ( 'NONE', *, *, #248, .F. ) ;
#56 = ADVANCED_BREP_SHAPE_REPRESENTATION ( 'c7c0', ( #61, #41 ), #136 ) ;
#57 = VECTOR ( 'NONE', #142, 1000.000000000000000 ) ;
#58 = APPROVAL_STATUS ( 'not_yet_approved' ) ;
#59 = CIRCLE ( 'NONE', #247, 7.000000000000000000 ) ;
#60 = CYLINDRICAL_SURFACE ( 'NONE', #251, 4.250000000000000000 ) ;
#61 = MANIFOLD_SOLID_BREP ( 'Pøidat vysunutím3', #236 ) ;
#62 = LINE ( 'NONE', #13, #57 ) ;
#63 = APPLICATION_CONTEXT ( 'configuration controlled 3d designs of mechanical parts and assemblies' ) ;
#64 = CIRCLE ( 'NONE', #218, 7.000000000000000000 ) ;
#65 = FACE_OUTER_BOUND ( 'NONE', #77, .T. ) ;
#66 = CARTESIAN_POINT ( 'NONE',  ( 0.000000000000000000, 0.000000000000000000, 160.0000000000000000 ) ) ;
#67 = DIRECTION ( 'NONE',  ( 0.000000000000000000, 0.000000000000000000, 1.000000000000000000 ) ) ;
#68 = EDGE_CURVE ( 'NONE', #178, #201, #62, .T. ) ;
#69 = CARTESIAN_POINT ( 'NONE',  ( 0.000000000000000000, 0.000000000000000000, 5.000000000000000000 ) ) ;
#70 = VECTOR ( 'NONE', #148, 1000.000000000000000 ) ;
#71 = FACE_OUTER_BOUND ( 'NONE', #108, .T. ) ;
#72 = APPROVAL ( #20, 'NEURÈENÝ' ) ;
#73 = FACE_OUTER_BOUND ( 'NONE', #12, .T. ) ;
#74 = CARTESIAN_POINT ( 'NONE',  ( 0.000000000000000000, 0.000000000000000000, 5.000000000000000000 ) ) ;
#75 =( NAMED_UNIT ( * ) PLANE_ANGLE_UNIT ( ) SI_UNIT ( $, .RADIAN. ) );
#76 = PERSON_AND_ORGANIZATION_ROLE ( 'classification_officer' ) ;
#77 = EDGE_LOOP ( 'NONE', ( #152, #103 ) ) ;
#78 = CC_DESIGN_PERSON_AND_ORGANIZATION_ASSIGNMENT ( #53, #76, ( #121 ) ) ;
#79 = CIRCLE ( 'NONE', #153, 4.250000000000000000 ) ;
#80 = PERSON_AND_ORGANIZATION_ROLE ( 'design_owner' ) ;
#81 = CALENDAR_DATE ( 2023, 12, 2 ) ;
#82 = COORDINATED_UNIVERSAL_TIME_OFFSET ( 1, 0, .AHEAD. ) ;
#83 = CC_DESIGN_APPROVAL ( #35, ( #121 ) ) ;
#84 = FACE_OUTER_BOUND ( 'NONE', #224, .T. ) ;
#85 = ORIENTED_EDGE ( 'NONE', *, *, #116, .T. ) ;
#86 = ORIENTED_EDGE ( 'NONE', *, *, #196, .T. ) ;
#87 = PERSON ( 'NEURÈENÝ', 'NEURÈENÝ', 'NEURÈENÝ', ('NEURÈENÝ'), ('NEURÈENÝ'), ('NEURÈENÝ') ) ;
#88 = AXIS2_PLACEMENT_3D ( 'NONE', #74, #147, #191 ) ;
#89 = FACE_BOUND ( 'NONE', #179, .T. ) ;
#90 = DIRECTION ( 'NONE',  ( 1.000000000000000000, 0.000000000000000000, 0.000000000000000000 ) ) ;
#91 = DIRECTION ( 'NONE',  ( -0.000000000000000000, -0.000000000000000000, -1.000000000000000000 ) ) ;
#92 = AXIS2_PLACEMENT_3D ( 'NONE', #40, #67, #26 ) ;
#93 = DIRECTION ( 'NONE',  ( 0.000000000000000000, 0.000000000000000000, 1.000000000000000000 ) ) ;
#94 =( NAMED_UNIT ( * ) SI_UNIT ( $, .STERADIAN. ) SOLID_ANGLE_UNIT ( ) );
#95 = CARTESIAN_POINT ( 'NONE',  ( 0.000000000000000000, 0.000000000000000000, 0.000000000000000000 ) ) ;
#96 = DIRECTION ( 'NONE',  ( -0.000000000000000000, -0.000000000000000000, -1.000000000000000000 ) ) ;
#97 = APPROVAL_PERSON_ORGANIZATION ( #155, #72, #21 ) ;
#98 = DESIGN_CONTEXT ( 'detailed design', #63, 'design' ) ;
#99 = ADVANCED_FACE ( 'NONE', ( #222 ), #42, .F. ) ;
#100 = VERTEX_POINT ( 'NONE', #246 ) ;
#101 = APPROVAL_STATUS ( 'not_yet_approved' ) ;
#102 = APPROVAL_DATE_TIME ( #118, #72 ) ;
#103 = ORIENTED_EDGE ( 'NONE', *, *, #208, .T. ) ;
#104 = CIRCLE ( 'NONE', #88, 7.000000000000000000 ) ;
#105 = ORIENTED_EDGE ( 'NONE', *, *, #234, .F. ) ;
#106 = ORIENTED_EDGE ( 'NONE', *, *, #25, .F. ) ;
#107 = ORIENTED_EDGE ( 'NONE', *, *, #140, .T. ) ;
#108 = EDGE_LOOP ( 'NONE', ( #55, #43, #161, #181 ) ) ;
#109 = ADVANCED_FACE ( 'NONE', ( #89, #65 ), #226, .T. ) ;
#110 = LINE ( 'NONE', #15, #32 ) ;
#111 = CARTESIAN_POINT ( 'NONE',  ( 0.000000000000000000, 0.000000000000000000, 5.000000000000000000 ) ) ;
#112 = ADVANCED_FACE ( 'NONE', ( #84 ), #60, .T. ) ;
#113 = CIRCLE ( 'NONE', #92, 4.250000000000000000 ) ;
#114 = DIRECTION ( 'NONE',  ( -1.000000000000000000, 0.000000000000000000, 0.000000000000000000 ) ) ;
#115 = DIRECTION ( 'NONE',  ( 0.000000000000000000, 0.000000000000000000, 1.000000000000000000 ) ) ;
#116 = EDGE_CURVE ( 'NONE', #100, #245, #79, .T. ) ;
#117 = CC_DESIGN_SECURITY_CLASSIFICATION ( #121, ( #49 ) ) ;
#118 = DATE_AND_TIME ( #8, #133 ) ;
#119 = CALENDAR_DATE ( 2023, 12, 2 ) ;
#120 = EDGE_CURVE ( 'NONE', #204, #249, #220, .T. ) ;
#121 = SECURITY_CLASSIFICATION ( '', '', #193 ) ;
#122 = APPROVAL_DATE_TIME ( #135, #35 ) ;
#123 = ORIENTED_EDGE ( 'NONE', *, *, #196, .F. ) ;
#124 = CC_DESIGN_PERSON_AND_ORGANIZATION_ASSIGNMENT ( #241, #171, ( #49 ) ) ;
#125 = ORIENTED_EDGE ( 'NONE', *, *, #120, .T. ) ;
#126 = DIRECTION ( 'NONE',  ( 0.000000000000000000, 0.000000000000000000, 1.000000000000000000 ) ) ;
#127 = CARTESIAN_POINT ( 'NONE',  ( 0.000000000000000000, 0.000000000000000000, 160.0000000000000000 ) ) ;
#128 = DIRECTION ( 'NONE',  ( 0.000000000000000000, 0.000000000000000000, 1.000000000000000000 ) ) ;
#129 = LOCAL_TIME ( 12, 10, 49.00000000000000000, #23 ) ;
#130 = ORIENTED_EDGE ( 'NONE', *, *, #6, .T. ) ;
#131 = CARTESIAN_POINT ( 'NONE',  ( 0.000000000000000000, 0.000000000000000000, 160.0000000000000000 ) ) ;
#132 = CARTESIAN_POINT ( 'NONE',  ( 4.250000000000000000, 5.204748896376250699E-16, 5.000000000000000000 ) ) ;
#133 = LOCAL_TIME ( 12, 10, 49.00000000000000000, #240 ) ;
#134 = DIRECTION ( 'NONE',  ( -1.000000000000000000, 0.000000000000000000, 0.000000000000000000 ) ) ;
#135 = DATE_AND_TIME ( #154, #194 ) ;
#136 =( GEOMETRIC_REPRESENTATION_CONTEXT ( 3 ) GLOBAL_UNCERTAINTY_ASSIGNED_CONTEXT ( ( #38 ) ) GLOBAL_UNIT_ASSIGNED_CONTEXT ( ( #1, #75, #94 ) ) REPRESENTATION_CONTEXT ( 'NONE', 'WORKASPACE' ) );
#137 = PERSON_AND_ORGANIZATION ( #87, #51 ) ;
#138 = PERSON_AND_ORGANIZATION_ROLE ( 'creator' ) ;
#139 = ORIENTED_EDGE ( 'NONE', *, *, #120, .F. ) ;
#140 = EDGE_CURVE ( 'NONE', #249, #204, #113, .T. ) ;
#141 = DIRECTION ( 'NONE',  ( 0.000000000000000000, 0.000000000000000000, 1.000000000000000000 ) ) ;
#142 = DIRECTION ( 'NONE',  ( -0.000000000000000000, -0.000000000000000000, -1.000000000000000000 ) ) ;
#143 = ADVANCED_FACE ( 'NONE', ( #160 ), #244, .T. ) ;
#144 = CARTESIAN_POINT ( 'NONE',  ( 0.000000000000000000, 0.000000000000000000, 5.000000000000000000 ) ) ;
#145 = CARTESIAN_POINT ( 'NONE',  ( 0.000000000000000000, 0.000000000000000000, 0.000000000000000000 ) ) ;
#146 = VERTEX_POINT ( 'NONE', #252 ) ;
#147 = DIRECTION ( 'NONE',  ( 0.000000000000000000, 0.000000000000000000, 1.000000000000000000 ) ) ;
#148 = DIRECTION ( 'NONE',  ( -0.000000000000000000, -0.000000000000000000, -1.000000000000000000 ) ) ;
#149 = CARTESIAN_POINT ( 'NONE',  ( 0.000000000000000000, 0.000000000000000000, 5.000000000000000000 ) ) ;
#150 = DIRECTION ( 'NONE',  ( 1.000000000000000000, 0.000000000000000000, 0.000000000000000000 ) ) ;
#151 = APPROVAL_ROLE ( '' ) ;
#152 = ORIENTED_EDGE ( 'NONE', *, *, #225, .T. ) ;
#153 = AXIS2_PLACEMENT_3D ( 'NONE', #66, #250, #44 ) ;
#154 = CALENDAR_DATE ( 2023, 12, 2 ) ;
#155 = PERSON_AND_ORGANIZATION ( #87, #51 ) ;
#156 = APPROVAL_DATE_TIME ( #200, #169 ) ;
#157 = EDGE_LOOP ( 'NONE', ( #182, #123 ) ) ;
#158 = PRODUCT_DEFINITION ( 'NEZNÁMÝ', '', #49, #98 ) ;
#159 = AXIS2_PLACEMENT_3D ( 'NONE', #149, #96, #114 ) ;
#160 = FACE_OUTER_BOUND ( 'NONE', #175, .T. ) ;
#161 = ORIENTED_EDGE ( 'NONE', *, *, #68, .T. ) ;
#162 = CC_DESIGN_DATE_AND_TIME_ASSIGNMENT ( #212, #198, ( #158 ) ) ;
#163 = DIRECTION ( 'NONE',  ( 1.000000000000000000, 0.000000000000000000, -0.000000000000000000 ) ) ;
#164 = DIRECTION ( 'NONE',  ( -0.000000000000000000, -0.000000000000000000, -1.000000000000000000 ) ) ;
#165 = DIRECTION ( 'NONE',  ( -1.000000000000000000, 0.000000000000000000, 0.000000000000000000 ) ) ;
#166 = DIRECTION ( 'NONE',  ( 1.000000000000000000, 0.000000000000000000, 0.000000000000000000 ) ) ;
#167 = ADVANCED_FACE ( 'NONE', ( #73 ), #210, .T. ) ;
#168 = CARTESIAN_POINT ( 'NONE',  ( -4.250000000000000000, 0.000000000000000000, 5.000000000000000000 ) ) ;
#169 = APPROVAL ( #101, 'NEURÈENÝ' ) ;
#170 = CARTESIAN_POINT ( 'NONE',  ( 0.000000000000000000, 0.000000000000000000, 160.0000000000000000 ) ) ;
#171 = PERSON_AND_ORGANIZATION_ROLE ( 'design_supplier' ) ;
#172 = ORIENTED_EDGE ( 'NONE', *, *, #248, .T. ) ;
#173 = APPLICATION_PROTOCOL_DEFINITION ( 'international standard', 'config_control_design', 1994, #63 ) ;
#174 = COORDINATED_UNIVERSAL_TIME_OFFSET ( 1, 0, .AHEAD. ) ;
#175 = EDGE_LOOP ( 'NONE', ( #85, #28 ) ) ;
#176 = ADVANCED_FACE ( 'NONE', ( #19 ), #186, .T. ) ;
#177 = CIRCLE ( 'NONE', #206, 7.000000000000000000 ) ;
#178 = VERTEX_POINT ( 'NONE', #36 ) ;
#179 = EDGE_LOOP ( 'NONE', ( #139, #5 ) ) ;
#180 = PRODUCT_RELATED_PRODUCT_CATEGORY ( 'detail', '', ( #52 ) ) ;
#181 = ORIENTED_EDGE ( 'NONE', *, *, #30, .T. ) ;
#182 = ORIENTED_EDGE ( 'NONE', *, *, #30, .F. ) ;
#183 = LOCAL_TIME ( 12, 10, 49.00000000000000000, #235 ) ;
#184 = VERTEX_POINT ( 'NONE', #188 ) ;
#185 = ADVANCED_FACE ( 'NONE', ( #71 ), #192, .T. ) ;
#186 = CYLINDRICAL_SURFACE ( 'NONE', #7, 7.000000000000000000 ) ;
#187 = CIRCLE ( 'NONE', #4, 4.250000000000000000 ) ;
#188 = CARTESIAN_POINT ( 'NONE',  ( 7.000000000000000000, 8.572527594031473190E-16, 5.000000000000000000 ) ) ;
#189 = LINE ( 'NONE', #47, #70 ) ;
#190 = CC_DESIGN_PERSON_AND_ORGANIZATION_ASSIGNMENT ( #217, #138, ( #49 ) ) ;
#191 = DIRECTION ( 'NONE',  ( 1.000000000000000000, 0.000000000000000000, 0.000000000000000000 ) ) ;
#192 = CYLINDRICAL_SURFACE ( 'NONE', #159, 7.000000000000000000 ) ;
#193 = SECURITY_CLASSIFICATION_LEVEL ( 'unclassified' ) ;
#194 = LOCAL_TIME ( 12, 10, 49.00000000000000000, #174 ) ;
#195 = CALENDAR_DATE ( 2023, 12, 2 ) ;
#196 = EDGE_CURVE ( 'NONE', #146, #201, #64, .T. ) ;
#197 = PERSON_AND_ORGANIZATION ( #87, #51 ) ;
#198 = DATE_TIME_ROLE ( 'creation_date' ) ;
#199 = CC_DESIGN_DATE_AND_TIME_ASSIGNMENT ( #3, #50, ( #121 ) ) ;
#200 = DATE_AND_TIME ( #119, #243 ) ;
#201 = VERTEX_POINT ( 'NONE', #253 ) ;
#202 = APPLICATION_CONTEXT ( 'configuration controlled 3d designs of mechanical parts and assemblies' ) ;
#203 = ORIENTED_EDGE ( 'NONE', *, *, #234, .T. ) ;
#204 = VERTEX_POINT ( 'NONE', #168 ) ;
#205 = DIRECTION ( 'NONE',  ( 1.000000000000000000, 0.000000000000000000, -0.000000000000000000 ) ) ;
#206 = AXIS2_PLACEMENT_3D ( 'NONE', #145, #141, #33 ) ;
#207 = DIRECTION ( 'NONE',  ( 1.000000000000000000, 0.000000000000000000, 0.000000000000000000 ) ) ;
#208 = EDGE_CURVE ( 'NONE', #184, #178, #104, .T. ) ;
#209 = APPLICATION_PROTOCOL_DEFINITION ( 'international standard', 'config_control_design', 1994, #202 ) ;
#210 = CYLINDRICAL_SURFACE ( 'NONE', #11, 4.250000000000000000 ) ;
#211 = MECHANICAL_CONTEXT ( 'NONE', #202, 'mechanical' ) ;
#212 = DATE_AND_TIME ( #195, #183 ) ;
#213 = AXIS2_PLACEMENT_3D ( 'NONE', #144, #223, #205 ) ;
#214 = CC_DESIGN_PERSON_AND_ORGANIZATION_ASSIGNMENT ( #2, #9, ( #158 ) ) ;
#215 = SHAPE_DEFINITION_REPRESENTATION ( #239, #56 ) ;
#216 = APPROVAL_PERSON_ORGANIZATION ( #54, #169, #238 ) ;
#217 = PERSON_AND_ORGANIZATION ( #87, #51 ) ;
#218 = AXIS2_PLACEMENT_3D ( 'NONE', #18, #37, #166 ) ;
#219 = CARTESIAN_POINT ( 'NONE',  ( 0.000000000000000000, 0.000000000000000000, 5.000000000000000000 ) ) ;
#220 = CIRCLE ( 'NONE', #27, 4.250000000000000000 ) ;
#221 = CC_DESIGN_PERSON_AND_ORGANIZATION_ASSIGNMENT ( #137, #80, ( #52 ) ) ;
#222 = FACE_OUTER_BOUND ( 'NONE', #157, .T. ) ;
#223 = DIRECTION ( 'NONE',  ( 0.000000000000000000, 0.000000000000000000, 1.000000000000000000 ) ) ;
#224 = EDGE_LOOP ( 'NONE', ( #242, #237, #203, #125 ) ) ;
#225 = EDGE_CURVE ( 'NONE', #178, #184, #59, .T. ) ;
#226 = PLANE ( 'NONE',  #213 ) ;
#227 = APPROVAL_PERSON_ORGANIZATION ( #197, #35, #151 ) ;
#228 = DIRECTION ( 'NONE',  ( -0.000000000000000000, -0.000000000000000000, -1.000000000000000000 ) ) ;
#229 = LINE ( 'NONE', #48, #46 ) ;
#230 = DIRECTION ( 'NONE',  ( -0.000000000000000000, -0.000000000000000000, -1.000000000000000000 ) ) ;
#231 = CC_DESIGN_APPROVAL ( #169, ( #49 ) ) ;
#232 = DIRECTION ( 'NONE',  ( 1.000000000000000000, 0.000000000000000000, 0.000000000000000000 ) ) ;
#233 = DIRECTION ( 'NONE',  ( -1.000000000000000000, 0.000000000000000000, 0.000000000000000000 ) ) ;
#234 = EDGE_CURVE ( 'NONE', #100, #204, #189, .T. ) ;
#235 = COORDINATED_UNIVERSAL_TIME_OFFSET ( 1, 0, .AHEAD. ) ;
#236 = CLOSED_SHELL ( 'NONE', ( #167, #176, #185, #109, #99, #112, #143 ) ) ;
#237 = ORIENTED_EDGE ( 'NONE', *, *, #116, .F. ) ;
#238 = APPROVAL_ROLE ( '' ) ;
#239 = PRODUCT_DEFINITION_SHAPE ( 'NONE', 'NONE',  #158 ) ;
#240 = COORDINATED_UNIVERSAL_TIME_OFFSET ( 1, 0, .AHEAD. ) ;
#241 = PERSON_AND_ORGANIZATION ( #87, #51 ) ;
#242 = ORIENTED_EDGE ( 'NONE', *, *, #6, .F. ) ;
#243 = LOCAL_TIME ( 12, 10, 49.00000000000000000, #82 ) ;
#244 = PLANE ( 'NONE',  #254 ) ;
#245 = VERTEX_POINT ( 'NONE', #34 ) ;
#246 = CARTESIAN_POINT ( 'NONE',  ( -4.250000000000000000, 0.000000000000000000, 160.0000000000000000 ) ) ;
#247 = AXIS2_PLACEMENT_3D ( 'NONE', #111, #115, #150 ) ;
#248 = EDGE_CURVE ( 'NONE', #184, #146, #229, .T. ) ;
#249 = VERTEX_POINT ( 'NONE', #132 ) ;
#250 = DIRECTION ( 'NONE',  ( 0.000000000000000000, 0.000000000000000000, 1.000000000000000000 ) ) ;
#251 = AXIS2_PLACEMENT_3D ( 'NONE', #31, #164, #165 ) ;
#252 = CARTESIAN_POINT ( 'NONE',  ( 7.000000000000000000, 8.572527594031473190E-16, 0.000000000000000000 ) ) ;
#253 = CARTESIAN_POINT ( 'NONE',  ( -7.000000000000000000, 0.000000000000000000, 0.000000000000000000 ) ) ;
#254 = AXIS2_PLACEMENT_3D ( 'NONE', #170, #93, #16 ) ;
#255 = DIRECTION ( 'NONE',  ( 0.000000000000000000, 0.000000000000000000, 1.000000000000000000 ) ) ;
ENDSEC;
END-ISO-10303-21;
