ISO-10303-21;
HEADER;
FILE_DESCRIPTION (( 'STEP AP203' ),
    '1' );
FILE_NAME ('6c59.STEP',
    '2023-02-12T12:01:13',
    ( '' ),
    ( '' ),
    'SwSTEP 2.0',
    'SolidWorks 2019',
    '' );
FILE_SCHEMA (( 'CONFIG_CONTROL_DESIGN' ));
ENDSEC;

DATA;
#1 = COORDINATED_UNIVERSAL_TIME_OFFSET ( 1, 0, .AHEAD. ) ;
#2 = ORIENTED_EDGE ( 'NONE', *, *, #43, .T. ) ;
#3 = SECURITY_CLASSIFICATION_LEVEL ( 'unclassified' ) ;
#4 = AXIS2_PLACEMENT_3D ( 'NONE', #229, #112, #62 ) ;
#5 = SHAPE_DEFINITION_REPRESENTATION ( #50, #74 ) ;
#6 = CC_DESIGN_PERSON_AND_ORGANIZATION_ASSIGNMENT ( #82, #245, ( #116 ) ) ;
#7 = APPROVAL_STATUS ( 'not_yet_approved' ) ;
#8 = CARTESIAN_POINT ( 'NONE',  ( 0.000000000000000000, 0.000000000000000000, 3.000000000000000000 ) ) ;
#9 = APPROVAL_PERSON_ORGANIZATION ( #110, #124, #201 ) ;
#10 = AXIS2_PLACEMENT_3D ( 'NONE', #53, #49, #44 ) ;
#11 = DIRECTION ( 'NONE',  ( -0.000000000000000000, -0.000000000000000000, -1.000000000000000000 ) ) ;
#12 = ADVANCED_FACE ( 'NONE', ( #230 ), #45, .T. ) ;
#13 = FACE_OUTER_BOUND ( 'NONE', #238, .T. ) ;
#14 = CARTESIAN_POINT ( 'NONE',  ( 0.000000000000000000, 0.000000000000000000, 0.000000000000000000 ) ) ;
#15 = PERSON ( 'NEURÈENÝ', 'NEURÈENÝ', 'NEURÈENÝ', ('NEURÈENÝ'), ('NEURÈENÝ'), ('NEURÈENÝ') ) ;
#16 = PRODUCT ( '6c59', '6c59', '', ( #103 ) ) ;
#17 = AXIS2_PLACEMENT_3D ( 'NONE', #246, #66, #155 ) ;
#18 = VERTEX_POINT ( 'NONE', #209 ) ;
#19 = ADVANCED_FACE ( 'NONE', ( #193, #13 ), #205, .T. ) ;
#20 = CALENDAR_DATE ( 2023, 12, 2 ) ;
#21 = COORDINATED_UNIVERSAL_TIME_OFFSET ( 1, 0, .AHEAD. ) ;
#22 = DIRECTION ( 'NONE',  ( 0.000000000000000000, 0.000000000000000000, 1.000000000000000000 ) ) ;
#23 = CALENDAR_DATE ( 2023, 12, 2 ) ;
#24 = DIRECTION ( 'NONE',  ( -0.000000000000000000, -0.000000000000000000, -1.000000000000000000 ) ) ;
#25 = EDGE_LOOP ( 'NONE', ( #104, #171, #128, #232 ) ) ;
#26 = ADVANCED_FACE ( 'NONE', ( #101 ), #28, .F. ) ;
#27 = CARTESIAN_POINT ( 'NONE',  ( -2.100000000000000089, 0.000000000000000000, 125.0000000000000000 ) ) ;
#28 = PLANE ( 'NONE',  #4 ) ;
#29 = DIRECTION ( 'NONE',  ( -0.000000000000000000, -0.000000000000000000, -1.000000000000000000 ) ) ;
#30 = DESIGN_CONTEXT ( 'detailed design', #242, 'design' ) ;
#31 = AXIS2_PLACEMENT_3D ( 'NONE', #90, #119, #134 ) ;
#32 = VERTEX_POINT ( 'NONE', #144 ) ;
#33 = CC_DESIGN_SECURITY_CLASSIFICATION ( #141, ( #116 ) ) ;
#34 = CARTESIAN_POINT ( 'NONE',  ( 0.000000000000000000, 0.000000000000000000, 3.000000000000000000 ) ) ;
#35 = DIRECTION ( 'NONE',  ( -0.000000000000000000, -0.000000000000000000, -1.000000000000000000 ) ) ;
#36 = CC_DESIGN_APPROVAL ( #124, ( #165 ) ) ;
#37 = PERSON_AND_ORGANIZATION_ROLE ( 'design_supplier' ) ;
#38 = PERSON_AND_ORGANIZATION_ROLE ( 'creator' ) ;
#39 = EDGE_CURVE ( 'NONE', #91, #145, #127, .T. ) ;
#40 = CARTESIAN_POINT ( 'NONE',  ( 0.000000000000000000, 0.000000000000000000, 0.000000000000000000 ) ) ;
#41 = APPROVAL_STATUS ( 'not_yet_approved' ) ;
#42 = DATE_AND_TIME ( #23, #60 ) ;
#43 = EDGE_CURVE ( 'NONE', #18, #76, #220, .T. ) ;
#44 = DIRECTION ( 'NONE',  ( -1.000000000000000000, 0.000000000000000000, 0.000000000000000000 ) ) ;
#45 = PLANE ( 'NONE',  #31 ) ;
#46 = CC_DESIGN_DATE_AND_TIME_ASSIGNMENT ( #105, #226, ( #165 ) ) ;
#47 = CARTESIAN_POINT ( 'NONE',  ( 0.000000000000000000, 0.000000000000000000, 3.000000000000000000 ) ) ;
#48 = CIRCLE ( 'NONE', #178, 2.100000000000000089 ) ;
#49 = DIRECTION ( 'NONE',  ( -0.000000000000000000, -0.000000000000000000, -1.000000000000000000 ) ) ;
#50 = PRODUCT_DEFINITION_SHAPE ( 'NONE', 'NONE',  #165 ) ;
#51 = EDGE_CURVE ( 'NONE', #78, #18, #48, .T. ) ;
#52 = AXIS2_PLACEMENT_3D ( 'NONE', #73, #29, #206 ) ;
#53 = CARTESIAN_POINT ( 'NONE',  ( 0.000000000000000000, 0.000000000000000000, 125.0000000000000000 ) ) ;
#54 = EDGE_CURVE ( 'NONE', #145, #91, #175, .T. ) ;
#55 = ORIENTED_EDGE ( 'NONE', *, *, #98, .F. ) ;
#56 = FACE_OUTER_BOUND ( 'NONE', #102, .T. ) ;
#57 = AXIS2_PLACEMENT_3D ( 'NONE', #143, #63, #115 ) ;
#58 = PERSON_AND_ORGANIZATION ( #15, #255 ) ;
#59 = ORIENTED_EDGE ( 'NONE', *, *, #54, .T. ) ;
#60 = LOCAL_TIME ( 13, 1, 13.00000000000000000, #161 ) ;
#61 = CALENDAR_DATE ( 2023, 12, 2 ) ;
#62 = DIRECTION ( 'NONE',  ( 1.000000000000000000, 0.000000000000000000, -0.000000000000000000 ) ) ;
#63 = DIRECTION ( 'NONE',  ( -0.000000000000000000, -0.000000000000000000, -1.000000000000000000 ) ) ;
#64 = CIRCLE ( 'NONE', #187, 2.100000000000000089 ) ;
#65 = DATE_AND_TIME ( #20, #100 ) ;
#66 = DIRECTION ( 'NONE',  ( 0.000000000000000000, 0.000000000000000000, 1.000000000000000000 ) ) ;
#67 = EDGE_CURVE ( 'NONE', #123, #76, #64, .T. ) ;
#68 = LINE ( 'NONE', #80, #196 ) ;
#69 = LINE ( 'NONE', #27, #176 ) ;
#70 = LOCAL_TIME ( 13, 1, 13.00000000000000000, #239 ) ;
#71 = AXIS2_PLACEMENT_3D ( 'NONE', #8, #86, #147 ) ;
#72 = ORIENTED_EDGE ( 'NONE', *, *, #39, .F. ) ;
#73 = CARTESIAN_POINT ( 'NONE',  ( 0.000000000000000000, 0.000000000000000000, 125.0000000000000000 ) ) ;
#74 = ADVANCED_BREP_SHAPE_REPRESENTATION ( '6c59', ( #87, #117 ), #235 ) ;
#75 = ORIENTED_EDGE ( 'NONE', *, *, #113, .T. ) ;
#76 = VERTEX_POINT ( 'NONE', #152 ) ;
#77 = PERSON_AND_ORGANIZATION_ROLE ( 'classification_officer' ) ;
#78 = VERTEX_POINT ( 'NONE', #202 ) ;
#79 = PERSON_AND_ORGANIZATION ( #15, #255 ) ;
#80 = CARTESIAN_POINT ( 'NONE',  ( -4.000000000000000000, 0.000000000000000000, 3.000000000000000000 ) ) ;
#81 = EDGE_CURVE ( 'NONE', #32, #145, #68, .T. ) ;
#82 = PERSON_AND_ORGANIZATION ( #15, #255 ) ;
#83 = CARTESIAN_POINT ( 'NONE',  ( 0.000000000000000000, 0.000000000000000000, 0.000000000000000000 ) ) ;
#84 = ORIENTED_EDGE ( 'NONE', *, *, #43, .F. ) ;
#85 = ADVANCED_FACE ( 'NONE', ( #224 ), #111, .T. ) ;
#86 = DIRECTION ( 'NONE',  ( 0.000000000000000000, 0.000000000000000000, 1.000000000000000000 ) ) ;
#87 = MANIFOLD_SOLID_BREP ( 'Pøidat vysunutím3', #107 ) ;
#88 = ORIENTED_EDGE ( 'NONE', *, *, #198, .T. ) ;
#89 = EDGE_CURVE ( 'NONE', #243, #32, #233, .T. ) ;
#90 = CARTESIAN_POINT ( 'NONE',  ( 0.000000000000000000, 0.000000000000000000, 125.0000000000000000 ) ) ;
#91 = VERTEX_POINT ( 'NONE', #163 ) ;
#92 = DIRECTION ( 'NONE',  ( -1.000000000000000000, 0.000000000000000000, 0.000000000000000000 ) ) ;
#93 = CARTESIAN_POINT ( 'NONE',  ( 0.000000000000000000, 0.000000000000000000, 3.000000000000000000 ) ) ;
#94 = CARTESIAN_POINT ( 'NONE',  ( 4.000000000000000000, 4.898587196589412829E-16, 3.000000000000000000 ) ) ;
#95 = DIRECTION ( 'NONE',  ( 0.000000000000000000, 0.000000000000000000, 1.000000000000000000 ) ) ;
#96 = CC_DESIGN_DATE_AND_TIME_ASSIGNMENT ( #42, #131, ( #141 ) ) ;
#97 = CIRCLE ( 'NONE', #160, 2.100000000000000089 ) ;
#98 = EDGE_CURVE ( 'NONE', #76, #123, #97, .T. ) ;
#99 = EDGE_LOOP ( 'NONE', ( #189, #75 ) ) ;
#100 = LOCAL_TIME ( 13, 1, 13.00000000000000000, #1 ) ;
#101 = FACE_OUTER_BOUND ( 'NONE', #136, .T. ) ;
#102 = EDGE_LOOP ( 'NONE', ( #84, #240, #106, #249 ) ) ;
#103 = MECHANICAL_CONTEXT ( 'NONE', #153, 'mechanical' ) ;
#104 = ORIENTED_EDGE ( 'NONE', *, *, #89, .F. ) ;
#105 = DATE_AND_TIME ( #114, #244 ) ;
#106 = ORIENTED_EDGE ( 'NONE', *, *, #120, .T. ) ;
#107 = CLOSED_SHELL ( 'NONE', ( #188, #218, #85, #19, #26, #225, #12 ) ) ;
#108 = DATE_AND_TIME ( #61, #70 ) ;
#109 = CYLINDRICAL_SURFACE ( 'NONE', #10, 2.100000000000000089 ) ;
#110 = PERSON_AND_ORGANIZATION ( #15, #255 ) ;
#111 = CYLINDRICAL_SURFACE ( 'NONE', #57, 4.000000000000000000 ) ;
#112 = DIRECTION ( 'NONE',  ( 0.000000000000000000, 0.000000000000000000, 1.000000000000000000 ) ) ;
#113 = EDGE_CURVE ( 'NONE', #18, #78, #169, .T. ) ;
#114 = CALENDAR_DATE ( 2023, 12, 2 ) ;
#115 = DIRECTION ( 'NONE',  ( -1.000000000000000000, 0.000000000000000000, 0.000000000000000000 ) ) ;
#116 = PRODUCT_DEFINITION_FORMATION_WITH_SPECIFIED_SOURCE ( 'LIBOVOLNÝ', '', #16, .NOT_KNOWN. ) ;
#117 = AXIS2_PLACEMENT_3D ( 'NONE', #83, #137, #164 ) ;
#118 = FACE_OUTER_BOUND ( 'NONE', #122, .T. ) ;
#119 = DIRECTION ( 'NONE',  ( 0.000000000000000000, 0.000000000000000000, 1.000000000000000000 ) ) ;
#120 = EDGE_CURVE ( 'NONE', #78, #123, #69, .T. ) ;
#121 = CARTESIAN_POINT ( 'NONE',  ( 2.100000000000000089, 2.571758278209441464E-16, 125.0000000000000000 ) ) ;
#122 = EDGE_LOOP ( 'NONE', ( #158, #2, #200, #211 ) ) ;
#123 = VERTEX_POINT ( 'NONE', #250 ) ;
#124 = APPROVAL ( #41, 'NEURÈENÝ' ) ;
#125 = DIRECTION ( 'NONE',  ( -0.000000000000000000, -0.000000000000000000, -1.000000000000000000 ) ) ;
#126 = DIRECTION ( 'NONE',  ( 0.000000000000000000, 0.000000000000000000, 1.000000000000000000 ) ) ;
#127 = CIRCLE ( 'NONE', #247, 4.000000000000000000 ) ;
#128 = ORIENTED_EDGE ( 'NONE', *, *, #39, .T. ) ;
#129 = APPROVAL_ROLE ( '' ) ;
#130 = APPLICATION_PROTOCOL_DEFINITION ( 'international standard', 'config_control_design', 1994, #153 ) ;
#131 = DATE_TIME_ROLE ( 'classification_date' ) ;
#132 = DIRECTION ( 'NONE',  ( 1.000000000000000000, 0.000000000000000000, 0.000000000000000000 ) ) ;
#133 = CIRCLE ( 'NONE', #183, 4.000000000000000000 ) ;
#134 = DIRECTION ( 'NONE',  ( 1.000000000000000000, 0.000000000000000000, -0.000000000000000000 ) ) ;
#135 = DIRECTION ( 'NONE',  ( 0.000000000000000000, 0.000000000000000000, 1.000000000000000000 ) ) ;
#136 = EDGE_LOOP ( 'NONE', ( #173, #72 ) ) ;
#137 = DIRECTION ( 'NONE',  ( 0.000000000000000000, 0.000000000000000000, 1.000000000000000000 ) ) ;
#138 = LINE ( 'NONE', #213, #215 ) ;
#139 = CC_DESIGN_PERSON_AND_ORGANIZATION_ASSIGNMENT ( #79, #77, ( #141 ) ) ;
#140 = APPROVAL_DATE_TIME ( #65, #124 ) ;
#141 = SECURITY_CLASSIFICATION ( '', '', #3 ) ;
#142 = DIRECTION ( 'NONE',  ( 1.000000000000000000, 0.000000000000000000, 0.000000000000000000 ) ) ;
#143 = CARTESIAN_POINT ( 'NONE',  ( 0.000000000000000000, 0.000000000000000000, 3.000000000000000000 ) ) ;
#144 = CARTESIAN_POINT ( 'NONE',  ( -4.000000000000000000, 0.000000000000000000, 3.000000000000000000 ) ) ;
#145 = VERTEX_POINT ( 'NONE', #207 ) ;
#146 = CC_DESIGN_PERSON_AND_ORGANIZATION_ASSIGNMENT ( #151, #38, ( #165 ) ) ;
#147 = DIRECTION ( 'NONE',  ( 1.000000000000000000, 0.000000000000000000, 0.000000000000000000 ) ) ;
#148 = AXIS2_PLACEMENT_3D ( 'NONE', #47, #135, #214 ) ;
#149 = APPROVAL_DATE_TIME ( #216, #236 ) ;
#150 = APPROVAL_PERSON_ORGANIZATION ( #159, #179, #129 ) ;
#151 = PERSON_AND_ORGANIZATION ( #15, #255 ) ;
#152 = CARTESIAN_POINT ( 'NONE',  ( 2.100000000000000089, 2.571758278209441464E-16, 3.000000000000000000 ) ) ;
#153 = APPLICATION_CONTEXT ( 'configuration controlled 3d designs of mechanical parts and assemblies' ) ;
#154 = DIRECTION ( 'NONE',  ( 1.000000000000000000, 0.000000000000000000, 0.000000000000000000 ) ) ;
#155 = DIRECTION ( 'NONE',  ( 1.000000000000000000, 0.000000000000000000, 0.000000000000000000 ) ) ;
#156 = ORIENTED_EDGE ( 'NONE', *, *, #89, .T. ) ;
#157 = EDGE_LOOP ( 'NONE', ( #221, #184, #227, #59 ) ) ;
#158 = ORIENTED_EDGE ( 'NONE', *, *, #113, .F. ) ;
#159 = PERSON_AND_ORGANIZATION ( #15, #255 ) ;
#160 = AXIS2_PLACEMENT_3D ( 'NONE', #241, #168, #219 ) ;
#161 = COORDINATED_UNIVERSAL_TIME_OFFSET ( 1, 0, .AHEAD. ) ;
#162 = AXIS2_PLACEMENT_3D ( 'NONE', #191, #11, #92 ) ;
#163 = CARTESIAN_POINT ( 'NONE',  ( 4.000000000000000000, 4.898587196589412829E-16, 0.000000000000000000 ) ) ;
#164 = DIRECTION ( 'NONE',  ( 1.000000000000000000, 0.000000000000000000, 0.000000000000000000 ) ) ;
#165 = PRODUCT_DEFINITION ( 'NEZNÁMÝ', '', #116, #30 ) ;
#166 = APPROVAL_STATUS ( 'not_yet_approved' ) ;
#167 = APPLICATION_PROTOCOL_DEFINITION ( 'international standard', 'config_control_design', 1994, #242 ) ;
#168 = DIRECTION ( 'NONE',  ( 0.000000000000000000, 0.000000000000000000, 1.000000000000000000 ) ) ;
#169 = CIRCLE ( 'NONE', #17, 2.100000000000000089 ) ;
#170 = EDGE_LOOP ( 'NONE', ( #254, #55 ) ) ;
#171 = ORIENTED_EDGE ( 'NONE', *, *, #210, .T. ) ;
#172 = VECTOR ( 'NONE', #125, 1000.000000000000000 ) ;
#173 = ORIENTED_EDGE ( 'NONE', *, *, #54, .F. ) ;
#174 = PRODUCT_RELATED_PRODUCT_CATEGORY ( 'detail', '', ( #16 ) ) ;
#175 = CIRCLE ( 'NONE', #199, 4.000000000000000000 ) ;
#176 = VECTOR ( 'NONE', #190, 1000.000000000000000 ) ;
#177 = CYLINDRICAL_SURFACE ( 'NONE', #52, 2.100000000000000089 ) ;
#178 = AXIS2_PLACEMENT_3D ( 'NONE', #192, #231, #194 ) ;
#179 = APPROVAL ( #166, 'NEURÈENÝ' ) ;
#180 = CALENDAR_DATE ( 2023, 12, 2 ) ;
#181 = PERSON_AND_ORGANIZATION ( #15, #255 ) ;
#182 = APPROVAL_DATE_TIME ( #108, #179 ) ;
#183 = AXIS2_PLACEMENT_3D ( 'NONE', #93, #237, #217 ) ;
#184 = ORIENTED_EDGE ( 'NONE', *, *, #198, .F. ) ;
#185 = PERSON_AND_ORGANIZATION_ROLE ( 'design_owner' ) ;
#186 = COORDINATED_UNIVERSAL_TIME_OFFSET ( 1, 0, .AHEAD. ) ;
#187 = AXIS2_PLACEMENT_3D ( 'NONE', #34, #126, #132 ) ;
#188 = ADVANCED_FACE ( 'NONE', ( #118 ), #177, .T. ) ;
#189 = ORIENTED_EDGE ( 'NONE', *, *, #51, .T. ) ;
#190 = DIRECTION ( 'NONE',  ( -0.000000000000000000, -0.000000000000000000, -1.000000000000000000 ) ) ;
#191 = CARTESIAN_POINT ( 'NONE',  ( 0.000000000000000000, 0.000000000000000000, 3.000000000000000000 ) ) ;
#192 = CARTESIAN_POINT ( 'NONE',  ( 0.000000000000000000, 0.000000000000000000, 125.0000000000000000 ) ) ;
#193 = FACE_BOUND ( 'NONE', #170, .T. ) ;
#194 = DIRECTION ( 'NONE',  ( 1.000000000000000000, 0.000000000000000000, 0.000000000000000000 ) ) ;
#195 = FACE_OUTER_BOUND ( 'NONE', #25, .T. ) ;
#196 = VECTOR ( 'NONE', #24, 1000.000000000000000 ) ;
#197 = APPROVAL_ROLE ( '' ) ;
#198 = EDGE_CURVE ( 'NONE', #32, #243, #133, .T. ) ;
#199 = AXIS2_PLACEMENT_3D ( 'NONE', #14, #95, #142 ) ;
#200 = ORIENTED_EDGE ( 'NONE', *, *, #98, .T. ) ;
#201 = APPROVAL_ROLE ( '' ) ;
#202 = CARTESIAN_POINT ( 'NONE',  ( -2.100000000000000089, 0.000000000000000000, 125.0000000000000000 ) ) ;
#203 = LOCAL_TIME ( 13, 1, 13.00000000000000000, #186 ) ;
#204 =( NAMED_UNIT ( * ) PLANE_ANGLE_UNIT ( ) SI_UNIT ( $, .RADIAN. ) );
#205 = PLANE ( 'NONE',  #148 ) ;
#206 = DIRECTION ( 'NONE',  ( -1.000000000000000000, 0.000000000000000000, 0.000000000000000000 ) ) ;
#207 = CARTESIAN_POINT ( 'NONE',  ( -4.000000000000000000, 0.000000000000000000, 0.000000000000000000 ) ) ;
#208 = CYLINDRICAL_SURFACE ( 'NONE', #162, 4.000000000000000000 ) ;
#209 = CARTESIAN_POINT ( 'NONE',  ( 2.100000000000000089, 2.571758278209441464E-16, 125.0000000000000000 ) ) ;
#210 = EDGE_CURVE ( 'NONE', #243, #91, #138, .T. ) ;
#211 = ORIENTED_EDGE ( 'NONE', *, *, #120, .F. ) ;
#212 = CC_DESIGN_PERSON_AND_ORGANIZATION_ASSIGNMENT ( #223, #37, ( #116 ) ) ;
#213 = CARTESIAN_POINT ( 'NONE',  ( 4.000000000000000000, 4.898587196589412829E-16, 3.000000000000000000 ) ) ;
#214 = DIRECTION ( 'NONE',  ( 1.000000000000000000, 0.000000000000000000, -0.000000000000000000 ) ) ;
#215 = VECTOR ( 'NONE', #35, 1000.000000000000000 ) ;
#216 = DATE_AND_TIME ( #180, #203 ) ;
#217 = DIRECTION ( 'NONE',  ( 1.000000000000000000, 0.000000000000000000, 0.000000000000000000 ) ) ;
#218 = ADVANCED_FACE ( 'NONE', ( #195 ), #208, .T. ) ;
#219 = DIRECTION ( 'NONE',  ( 1.000000000000000000, 0.000000000000000000, 0.000000000000000000 ) ) ;
#220 = LINE ( 'NONE', #121, #172 ) ;
#221 = ORIENTED_EDGE ( 'NONE', *, *, #210, .F. ) ;
#222 = CC_DESIGN_APPROVAL ( #236, ( #116 ) ) ;
#223 = PERSON_AND_ORGANIZATION ( #15, #255 ) ;
#224 = FACE_OUTER_BOUND ( 'NONE', #157, .T. ) ;
#225 = ADVANCED_FACE ( 'NONE', ( #56 ), #109, .T. ) ;
#226 = DATE_TIME_ROLE ( 'creation_date' ) ;
#227 = ORIENTED_EDGE ( 'NONE', *, *, #81, .T. ) ;
#228 = UNCERTAINTY_MEASURE_WITH_UNIT (LENGTH_MEASURE( 1.000000000000000082E-05 ), #252, 'distance_accuracy_value', 'NONE');
#229 = CARTESIAN_POINT ( 'NONE',  ( 0.000000000000000000, 0.000000000000000000, 0.000000000000000000 ) ) ;
#230 = FACE_OUTER_BOUND ( 'NONE', #99, .T. ) ;
#231 = DIRECTION ( 'NONE',  ( 0.000000000000000000, 0.000000000000000000, 1.000000000000000000 ) ) ;
#232 = ORIENTED_EDGE ( 'NONE', *, *, #81, .F. ) ;
#233 = CIRCLE ( 'NONE', #71, 4.000000000000000000 ) ;
#234 =( NAMED_UNIT ( * ) SI_UNIT ( $, .STERADIAN. ) SOLID_ANGLE_UNIT ( ) );
#235 =( GEOMETRIC_REPRESENTATION_CONTEXT ( 3 ) GLOBAL_UNCERTAINTY_ASSIGNED_CONTEXT ( ( #228 ) ) GLOBAL_UNIT_ASSIGNED_CONTEXT ( ( #252, #204, #234 ) ) REPRESENTATION_CONTEXT ( 'NONE', 'WORKASPACE' ) );
#236 = APPROVAL ( #7, 'NEURÈENÝ' ) ;
#237 = DIRECTION ( 'NONE',  ( 0.000000000000000000, 0.000000000000000000, 1.000000000000000000 ) ) ;
#238 = EDGE_LOOP ( 'NONE', ( #88, #156 ) ) ;
#239 = COORDINATED_UNIVERSAL_TIME_OFFSET ( 1, 0, .AHEAD. ) ;
#240 = ORIENTED_EDGE ( 'NONE', *, *, #51, .F. ) ;
#241 = CARTESIAN_POINT ( 'NONE',  ( 0.000000000000000000, 0.000000000000000000, 3.000000000000000000 ) ) ;
#242 = APPLICATION_CONTEXT ( 'configuration controlled 3d designs of mechanical parts and assemblies' ) ;
#243 = VERTEX_POINT ( 'NONE', #94 ) ;
#244 = LOCAL_TIME ( 13, 1, 13.00000000000000000, #21 ) ;
#245 = PERSON_AND_ORGANIZATION_ROLE ( 'creator' ) ;
#246 = CARTESIAN_POINT ( 'NONE',  ( 0.000000000000000000, 0.000000000000000000, 125.0000000000000000 ) ) ;
#247 = AXIS2_PLACEMENT_3D ( 'NONE', #40, #22, #154 ) ;
#248 = CC_DESIGN_APPROVAL ( #179, ( #141 ) ) ;
#249 = ORIENTED_EDGE ( 'NONE', *, *, #67, .T. ) ;
#250 = CARTESIAN_POINT ( 'NONE',  ( -2.100000000000000089, 0.000000000000000000, 3.000000000000000000 ) ) ;
#251 = APPROVAL_PERSON_ORGANIZATION ( #181, #236, #197 ) ;
#252 =( LENGTH_UNIT ( ) NAMED_UNIT ( * ) SI_UNIT ( .MILLI., .METRE. ) );
#253 = CC_DESIGN_PERSON_AND_ORGANIZATION_ASSIGNMENT ( #58, #185, ( #16 ) ) ;
#254 = ORIENTED_EDGE ( 'NONE', *, *, #67, .F. ) ;
#255 = ORGANIZATION ( 'NEURÈENÝ', 'NEURÈENÝ', '' ) ;
ENDSEC;
END-ISO-10303-21;
