ISO-10303-21;
HEADER;
FILE_DESCRIPTION (( 'STEP AP203' ),
    '1' );
FILE_NAME ('6797.STEP',
    '2023-02-12T12:03:39',
    ( '' ),
    ( '' ),
    'SwSTEP 2.0',
    'SolidWorks 2019',
    '' );
FILE_SCHEMA (( 'CONFIG_CONTROL_DESIGN' ));
ENDSEC;

DATA;
#1 = CARTESIAN_POINT ( 'NONE',  ( 1.750000000000000000, 2.143131898507868297E-16, 315.0000000000000000 ) ) ;
#2 = DATE_AND_TIME ( #219, #217 ) ;
#3 = CC_DESIGN_PERSON_AND_ORGANIZATION_ASSIGNMENT ( #207, #54, ( #195 ) ) ;
#4 = DIRECTION ( 'NONE',  ( 1.000000000000000000, 0.000000000000000000, 0.000000000000000000 ) ) ;
#5 = CC_DESIGN_DATE_AND_TIME_ASSIGNMENT ( #183, #49, ( #79 ) ) ;
#6 = ORGANIZATION ( 'NEURÈENÝ', 'NEURÈENÝ', '' ) ;
#7 = DATE_AND_TIME ( #196, #157 ) ;
#8 = MANIFOLD_SOLID_BREP ( 'Pøidat vysunutím3', #180 ) ;
#9 = PERSON_AND_ORGANIZATION_ROLE ( 'classification_officer' ) ;
#10 = EDGE_LOOP ( 'NONE', ( #165, #147, #92, #185 ) ) ;
#11 = COORDINATED_UNIVERSAL_TIME_OFFSET ( 1, 0, .AHEAD. ) ;
#12 = ORIENTED_EDGE ( 'NONE', *, *, #39, .T. ) ;
#13 = FACE_OUTER_BOUND ( 'NONE', #10, .T. ) ;
#14 = ORIENTED_EDGE ( 'NONE', *, *, #146, .F. ) ;
#15 = UNCERTAINTY_MEASURE_WITH_UNIT (LENGTH_MEASURE( 1.000000000000000082E-05 ), #60, 'distance_accuracy_value', 'NONE');
#16 = CARTESIAN_POINT ( 'NONE',  ( 0.000000000000000000, 0.000000000000000000, 315.0000000000000000 ) ) ;
#17 = DIRECTION ( 'NONE',  ( 1.000000000000000000, 0.000000000000000000, 0.000000000000000000 ) ) ;
#18 = FACE_OUTER_BOUND ( 'NONE', #108, .T. ) ;
#19 =( GEOMETRIC_REPRESENTATION_CONTEXT ( 3 ) GLOBAL_UNCERTAINTY_ASSIGNED_CONTEXT ( ( #15 ) ) GLOBAL_UNIT_ASSIGNED_CONTEXT ( ( #60, #25, #106 ) ) REPRESENTATION_CONTEXT ( 'NONE', 'WORKASPACE' ) );
#20 = ADVANCED_FACE ( 'NONE', ( #67, #160 ), #148, .T. ) ;
#21 = APPROVAL_ROLE ( '' ) ;
#22 = ORIENTED_EDGE ( 'NONE', *, *, #41, .T. ) ;
#23 = PERSON_AND_ORGANIZATION ( #140, #6 ) ;
#24 = CARTESIAN_POINT ( 'NONE',  ( 0.000000000000000000, 0.000000000000000000, 3.000000000000000000 ) ) ;
#25 =( NAMED_UNIT ( * ) PLANE_ANGLE_UNIT ( ) SI_UNIT ( $, .RADIAN. ) );
#26 = EDGE_LOOP ( 'NONE', ( #111, #72 ) ) ;
#27 = APPROVAL_STATUS ( 'not_yet_approved' ) ;
#28 = DIRECTION ( 'NONE',  ( 1.000000000000000000, 0.000000000000000000, 0.000000000000000000 ) ) ;
#29 = EDGE_LOOP ( 'NONE', ( #151, #14 ) ) ;
#30 = EDGE_CURVE ( 'NONE', #52, #128, #215, .T. ) ;
#31 = DIRECTION ( 'NONE',  ( 1.000000000000000000, 0.000000000000000000, 0.000000000000000000 ) ) ;
#32 = PERSON_AND_ORGANIZATION ( #140, #6 ) ;
#33 = ORIENTED_EDGE ( 'NONE', *, *, #248, .F. ) ;
#34 = VECTOR ( 'NONE', #121, 1000.000000000000000 ) ;
#35 = EDGE_CURVE ( 'NONE', #228, #113, #249, .T. ) ;
#36 = CIRCLE ( 'NONE', #44, 3.500000000000000000 ) ;
#37 = PERSON_AND_ORGANIZATION_ROLE ( 'creator' ) ;
#38 = DIRECTION ( 'NONE',  ( -1.000000000000000000, 0.000000000000000000, 0.000000000000000000 ) ) ;
#39 = EDGE_CURVE ( 'NONE', #132, #105, #222, .T. ) ;
#40 = CARTESIAN_POINT ( 'NONE',  ( -1.750000000000000000, 0.000000000000000000, 3.000000000000000000 ) ) ;
#41 = EDGE_CURVE ( 'NONE', #113, #200, #51, .T. ) ;
#42 = LINE ( 'NONE', #236, #34 ) ;
#43 = AXIS2_PLACEMENT_3D ( 'NONE', #223, #179, #48 ) ;
#44 = AXIS2_PLACEMENT_3D ( 'NONE', #71, #152, #53 ) ;
#45 = DIRECTION ( 'NONE',  ( 0.000000000000000000, 0.000000000000000000, 1.000000000000000000 ) ) ;
#46 = CIRCLE ( 'NONE', #78, 1.750000000000000000 ) ;
#47 = APPLICATION_CONTEXT ( 'configuration controlled 3d designs of mechanical parts and assemblies' ) ;
#48 = DIRECTION ( 'NONE',  ( 1.000000000000000000, 0.000000000000000000, -0.000000000000000000 ) ) ;
#49 = DATE_TIME_ROLE ( 'classification_date' ) ;
#50 = EDGE_LOOP ( 'NONE', ( #86, #247 ) ) ;
#51 = LINE ( 'NONE', #171, #170 ) ;
#52 = VERTEX_POINT ( 'NONE', #184 ) ;
#53 = DIRECTION ( 'NONE',  ( 1.000000000000000000, 0.000000000000000000, 0.000000000000000000 ) ) ;
#54 = PERSON_AND_ORGANIZATION_ROLE ( 'creator' ) ;
#55 = CC_DESIGN_PERSON_AND_ORGANIZATION_ASSIGNMENT ( #32, #9, ( #79 ) ) ;
#56 = PLANE ( 'NONE',  #96 ) ;
#57 = PRODUCT ( '6797', '6797', '', ( #104 ) ) ;
#58 = FACE_OUTER_BOUND ( 'NONE', #68, .T. ) ;
#59 = EDGE_CURVE ( 'NONE', #113, #228, #46, .T. ) ;
#60 =( LENGTH_UNIT ( ) NAMED_UNIT ( * ) SI_UNIT ( .MILLI., .METRE. ) );
#61 = ADVANCED_BREP_SHAPE_REPRESENTATION ( '6797', ( #8, #85 ), #19 ) ;
#62 = AXIS2_PLACEMENT_3D ( 'NONE', #218, #194, #102 ) ;
#63 = CARTESIAN_POINT ( 'NONE',  ( 1.750000000000000000, 2.143131898507868297E-16, 3.000000000000000000 ) ) ;
#64 = ADVANCED_FACE ( 'NONE', ( #119 ), #75, .T. ) ;
#65 = DIRECTION ( 'NONE',  ( 0.000000000000000000, 0.000000000000000000, 1.000000000000000000 ) ) ;
#66 = APPLICATION_CONTEXT ( 'configuration controlled 3d designs of mechanical parts and assemblies' ) ;
#67 = FACE_BOUND ( 'NONE', #29, .T. ) ;
#68 = EDGE_LOOP ( 'NONE', ( #107, #181, #22, #164 ) ) ;
#69 = CARTESIAN_POINT ( 'NONE',  ( 3.500000000000000000, 4.286263797015736595E-16, 0.000000000000000000 ) ) ;
#70 = ORIENTED_EDGE ( 'NONE', *, *, #87, .F. ) ;
#71 = CARTESIAN_POINT ( 'NONE',  ( 0.000000000000000000, 0.000000000000000000, 0.000000000000000000 ) ) ;
#72 = ORIENTED_EDGE ( 'NONE', *, *, #252, .T. ) ;
#73 = AXIS2_PLACEMENT_3D ( 'NONE', #24, #127, #125 ) ;
#74 = LOCAL_TIME ( 13, 3, 39.00000000000000000, #188 ) ;
#75 = CYLINDRICAL_SURFACE ( 'NONE', #254, 3.500000000000000000 ) ;
#76 = CALENDAR_DATE ( 2023, 12, 2 ) ;
#77 = CARTESIAN_POINT ( 'NONE',  ( 0.000000000000000000, 0.000000000000000000, 3.000000000000000000 ) ) ;
#78 = AXIS2_PLACEMENT_3D ( 'NONE', #250, #95, #31 ) ;
#79 = SECURITY_CLASSIFICATION ( '', '', #201 ) ;
#80 = DIRECTION ( 'NONE',  ( -0.000000000000000000, -0.000000000000000000, -1.000000000000000000 ) ) ;
#81 = DATE_AND_TIME ( #124, #74 ) ;
#82 = PERSON_AND_ORGANIZATION ( #140, #6 ) ;
#83 = ORIENTED_EDGE ( 'NONE', *, *, #35, .T. ) ;
#84 = CC_DESIGN_DATE_AND_TIME_ASSIGNMENT ( #81, #120, ( #195 ) ) ;
#85 = AXIS2_PLACEMENT_3D ( 'NONE', #226, #65, #143 ) ;
#86 = ORIENTED_EDGE ( 'NONE', *, *, #182, .F. ) ;
#87 = EDGE_CURVE ( 'NONE', #52, #105, #115, .T. ) ;
#88 = EDGE_LOOP ( 'NONE', ( #163, #94, #12, #70 ) ) ;
#89 = CALENDAR_DATE ( 2023, 12, 2 ) ;
#90 = ORIENTED_EDGE ( 'NONE', *, *, #30, .F. ) ;
#91 = CARTESIAN_POINT ( 'NONE',  ( -3.500000000000000000, 0.000000000000000000, 3.000000000000000000 ) ) ;
#92 = ORIENTED_EDGE ( 'NONE', *, *, #146, .T. ) ;
#93 = CYLINDRICAL_SURFACE ( 'NONE', #232, 1.750000000000000000 ) ;
#94 = ORIENTED_EDGE ( 'NONE', *, *, #248, .T. ) ;
#95 = DIRECTION ( 'NONE',  ( 0.000000000000000000, 0.000000000000000000, 1.000000000000000000 ) ) ;
#96 = AXIS2_PLACEMENT_3D ( 'NONE', #234, #136, #253 ) ;
#97 = APPROVAL_STATUS ( 'not_yet_approved' ) ;
#98 = PRODUCT_DEFINITION_SHAPE ( 'NONE', 'NONE',  #195 ) ;
#99 = CARTESIAN_POINT ( 'NONE',  ( 0.000000000000000000, 0.000000000000000000, 3.000000000000000000 ) ) ;
#100 = CC_DESIGN_PERSON_AND_ORGANIZATION_ASSIGNMENT ( #118, #244, ( #209 ) ) ;
#101 = DIRECTION ( 'NONE',  ( 1.000000000000000000, 0.000000000000000000, -0.000000000000000000 ) ) ;
#102 = DIRECTION ( 'NONE',  ( -1.000000000000000000, 0.000000000000000000, 0.000000000000000000 ) ) ;
#103 = CC_DESIGN_APPROVAL ( #214, ( #79 ) ) ;
#104 = MECHANICAL_CONTEXT ( 'NONE', #47, 'mechanical' ) ;
#105 = VERTEX_POINT ( 'NONE', #153 ) ;
#106 =( NAMED_UNIT ( * ) SI_UNIT ( $, .STERADIAN. ) SOLID_ANGLE_UNIT ( ) );
#107 = ORIENTED_EDGE ( 'NONE', *, *, #235, .F. ) ;
#108 = EDGE_LOOP ( 'NONE', ( #33, #90, #242, #230 ) ) ;
#109 = LOCAL_TIME ( 13, 3, 39.00000000000000000, #150 ) ;
#110 = ORIENTED_EDGE ( 'NONE', *, *, #59, .T. ) ;
#111 = ORIENTED_EDGE ( 'NONE', *, *, #30, .T. ) ;
#112 = DIRECTION ( 'NONE',  ( 1.000000000000000000, 0.000000000000000000, 0.000000000000000000 ) ) ;
#113 = VERTEX_POINT ( 'NONE', #210 ) ;
#114 = CC_DESIGN_PERSON_AND_ORGANIZATION_ASSIGNMENT ( #23, #37, ( #209 ) ) ;
#115 = LINE ( 'NONE', #91, #174 ) ;
#116 = DIRECTION ( 'NONE',  ( -1.000000000000000000, 0.000000000000000000, 0.000000000000000000 ) ) ;
#117 = CC_DESIGN_SECURITY_CLASSIFICATION ( #79, ( #209 ) ) ;
#118 = PERSON_AND_ORGANIZATION ( #140, #6 ) ;
#119 = FACE_OUTER_BOUND ( 'NONE', #88, .T. ) ;
#120 = DATE_TIME_ROLE ( 'creation_date' ) ;
#121 = DIRECTION ( 'NONE',  ( -0.000000000000000000, -0.000000000000000000, -1.000000000000000000 ) ) ;
#122 = LOCAL_TIME ( 13, 3, 39.00000000000000000, #11 ) ;
#123 = CARTESIAN_POINT ( 'NONE',  ( 0.000000000000000000, 0.000000000000000000, 3.000000000000000000 ) ) ;
#124 = CALENDAR_DATE ( 2023, 12, 2 ) ;
#125 = DIRECTION ( 'NONE',  ( 1.000000000000000000, 0.000000000000000000, 0.000000000000000000 ) ) ;
#126 = CC_DESIGN_PERSON_AND_ORGANIZATION_ASSIGNMENT ( #82, #199, ( #57 ) ) ;
#127 = DIRECTION ( 'NONE',  ( 0.000000000000000000, 0.000000000000000000, 1.000000000000000000 ) ) ;
#128 = VERTEX_POINT ( 'NONE', #189 ) ;
#129 = DESIGN_CONTEXT ( 'detailed design', #66, 'design' ) ;
#130 = CARTESIAN_POINT ( 'NONE',  ( 0.000000000000000000, 0.000000000000000000, 3.000000000000000000 ) ) ;
#131 = APPROVAL_ROLE ( '' ) ;
#132 = VERTEX_POINT ( 'NONE', #69 ) ;
#133 = ADVANCED_FACE ( 'NONE', ( #58 ), #212, .T. ) ;
#134 = DATE_AND_TIME ( #76, #122 ) ;
#135 = PLANE ( 'NONE',  #172 ) ;
#136 = DIRECTION ( 'NONE',  ( 0.000000000000000000, 0.000000000000000000, 1.000000000000000000 ) ) ;
#137 = DIRECTION ( 'NONE',  ( -0.000000000000000000, -0.000000000000000000, -1.000000000000000000 ) ) ;
#138 = APPROVAL_PERSON_ORGANIZATION ( #191, #159, #21 ) ;
#139 = AXIS2_PLACEMENT_3D ( 'NONE', #220, #45, #4 ) ;
#140 = PERSON ( 'NEURÈENÝ', 'NEURÈENÝ', 'NEURÈENÝ', ('NEURÈENÝ'), ('NEURÈENÝ'), ('NEURÈENÝ') ) ;
#141 = DIRECTION ( 'NONE',  ( 1.000000000000000000, 0.000000000000000000, 0.000000000000000000 ) ) ;
#142 = ADVANCED_FACE ( 'NONE', ( #173 ), #56, .T. ) ;
#143 = DIRECTION ( 'NONE',  ( 1.000000000000000000, 0.000000000000000000, 0.000000000000000000 ) ) ;
#144 = DIRECTION ( 'NONE',  ( 0.000000000000000000, 0.000000000000000000, 1.000000000000000000 ) ) ;
#145 = AXIS2_PLACEMENT_3D ( 'NONE', #99, #255, #141 ) ;
#146 = EDGE_CURVE ( 'NONE', #198, #200, #240, .T. ) ;
#147 = ORIENTED_EDGE ( 'NONE', *, *, #235, .T. ) ;
#148 = PLANE ( 'NONE',  #43 ) ;
#149 = APPROVAL_DATE_TIME ( #7, #214 ) ;
#150 = COORDINATED_UNIVERSAL_TIME_OFFSET ( 1, 0, .AHEAD. ) ;
#151 = ORIENTED_EDGE ( 'NONE', *, *, #238, .F. ) ;
#152 = DIRECTION ( 'NONE',  ( 0.000000000000000000, 0.000000000000000000, 1.000000000000000000 ) ) ;
#153 = CARTESIAN_POINT ( 'NONE',  ( -3.500000000000000000, 0.000000000000000000, 0.000000000000000000 ) ) ;
#154 = VECTOR ( 'NONE', #80, 1000.000000000000000 ) ;
#155 = CC_DESIGN_APPROVAL ( #159, ( #209 ) ) ;
#156 = DIRECTION ( 'NONE',  ( 0.000000000000000000, 0.000000000000000000, 1.000000000000000000 ) ) ;
#157 = LOCAL_TIME ( 13, 3, 39.00000000000000000, #243 ) ;
#158 = DIRECTION ( 'NONE',  ( 0.000000000000000000, 0.000000000000000000, 1.000000000000000000 ) ) ;
#159 = APPROVAL ( #97, 'NEURÈENÝ' ) ;
#160 = FACE_OUTER_BOUND ( 'NONE', #26, .T. ) ;
#161 = APPLICATION_PROTOCOL_DEFINITION ( 'international standard', 'config_control_design', 1994, #66 ) ;
#162 = APPROVAL_STATUS ( 'not_yet_approved' ) ;
#163 = ORIENTED_EDGE ( 'NONE', *, *, #252, .F. ) ;
#164 = ORIENTED_EDGE ( 'NONE', *, *, #238, .T. ) ;
#165 = ORIENTED_EDGE ( 'NONE', *, *, #35, .F. ) ;
#166 = DIRECTION ( 'NONE',  ( -0.000000000000000000, -0.000000000000000000, -1.000000000000000000 ) ) ;
#167 = ADVANCED_FACE ( 'NONE', ( #13 ), #93, .T. ) ;
#168 = CARTESIAN_POINT ( 'NONE',  ( 0.000000000000000000, 0.000000000000000000, 315.0000000000000000 ) ) ;
#169 = APPROVAL_ROLE ( '' ) ;
#170 = VECTOR ( 'NONE', #137, 1000.000000000000000 ) ;
#171 = CARTESIAN_POINT ( 'NONE',  ( -1.750000000000000000, 0.000000000000000000, 315.0000000000000000 ) ) ;
#172 = AXIS2_PLACEMENT_3D ( 'NONE', #186, #158, #101 ) ;
#173 = FACE_OUTER_BOUND ( 'NONE', #245, .T. ) ;
#174 = VECTOR ( 'NONE', #213, 1000.000000000000000 ) ;
#175 = DIRECTION ( 'NONE',  ( 0.000000000000000000, 0.000000000000000000, 1.000000000000000000 ) ) ;
#176 = LINE ( 'NONE', #1, #154 ) ;
#177 = COORDINATED_UNIVERSAL_TIME_OFFSET ( 1, 0, .AHEAD. ) ;
#178 = APPLICATION_PROTOCOL_DEFINITION ( 'international standard', 'config_control_design', 1994, #47 ) ;
#179 = DIRECTION ( 'NONE',  ( 0.000000000000000000, 0.000000000000000000, 1.000000000000000000 ) ) ;
#180 = CLOSED_SHELL ( 'NONE', ( #167, #64, #231, #20, #187, #133, #142 ) ) ;
#181 = ORIENTED_EDGE ( 'NONE', *, *, #59, .F. ) ;
#182 = EDGE_CURVE ( 'NONE', #105, #132, #36, .T. ) ;
#183 = DATE_AND_TIME ( #89, #109 ) ;
#184 = CARTESIAN_POINT ( 'NONE',  ( -3.500000000000000000, 0.000000000000000000, 3.000000000000000000 ) ) ;
#185 = ORIENTED_EDGE ( 'NONE', *, *, #41, .F. ) ;
#186 = CARTESIAN_POINT ( 'NONE',  ( 0.000000000000000000, 0.000000000000000000, 0.000000000000000000 ) ) ;
#187 = ADVANCED_FACE ( 'NONE', ( #211 ), #135, .F. ) ;
#188 = COORDINATED_UNIVERSAL_TIME_OFFSET ( 1, 0, .AHEAD. ) ;
#189 = CARTESIAN_POINT ( 'NONE',  ( 3.500000000000000000, 4.286263797015736595E-16, 3.000000000000000000 ) ) ;
#190 = CIRCLE ( 'NONE', #145, 1.750000000000000000 ) ;
#191 = PERSON_AND_ORGANIZATION ( #140, #6 ) ;
#192 = CARTESIAN_POINT ( 'NONE',  ( 1.750000000000000000, 2.143131898507868297E-16, 315.0000000000000000 ) ) ;
#193 = CYLINDRICAL_SURFACE ( 'NONE', #62, 3.500000000000000000 ) ;
#194 = DIRECTION ( 'NONE',  ( -0.000000000000000000, -0.000000000000000000, -1.000000000000000000 ) ) ;
#195 = PRODUCT_DEFINITION ( 'NEZNÁMÝ', '', #209, #129 ) ;
#196 = CALENDAR_DATE ( 2023, 12, 2 ) ;
#197 = AXIS2_PLACEMENT_3D ( 'NONE', #77, #156, #112 ) ;
#198 = VERTEX_POINT ( 'NONE', #63 ) ;
#199 = PERSON_AND_ORGANIZATION_ROLE ( 'design_owner' ) ;
#200 = VERTEX_POINT ( 'NONE', #40 ) ;
#201 = SECURITY_CLASSIFICATION_LEVEL ( 'unclassified' ) ;
#202 = APPROVAL ( #162, 'NEURÈENÝ' ) ;
#203 = SHAPE_DEFINITION_REPRESENTATION ( #98, #61 ) ;
#204 = AXIS2_PLACEMENT_3D ( 'NONE', #16, #205, #251 ) ;
#205 = DIRECTION ( 'NONE',  ( -0.000000000000000000, -0.000000000000000000, -1.000000000000000000 ) ) ;
#206 = PERSON_AND_ORGANIZATION ( #140, #6 ) ;
#207 = PERSON_AND_ORGANIZATION ( #140, #6 ) ;
#208 = CIRCLE ( 'NONE', #224, 3.500000000000000000 ) ;
#209 = PRODUCT_DEFINITION_FORMATION_WITH_SPECIFIED_SOURCE ( 'LIBOVOLNÝ', '', #57, .NOT_KNOWN. ) ;
#210 = CARTESIAN_POINT ( 'NONE',  ( -1.750000000000000000, 0.000000000000000000, 315.0000000000000000 ) ) ;
#211 = FACE_OUTER_BOUND ( 'NONE', #50, .T. ) ;
#212 = CYLINDRICAL_SURFACE ( 'NONE', #204, 1.750000000000000000 ) ;
#213 = DIRECTION ( 'NONE',  ( -0.000000000000000000, -0.000000000000000000, -1.000000000000000000 ) ) ;
#214 = APPROVAL ( #27, 'NEURÈENÝ' ) ;
#215 = CIRCLE ( 'NONE', #73, 3.500000000000000000 ) ;
#216 = PRODUCT_RELATED_PRODUCT_CATEGORY ( 'detail', '', ( #57 ) ) ;
#217 = LOCAL_TIME ( 13, 3, 39.00000000000000000, #177 ) ;
#218 = CARTESIAN_POINT ( 'NONE',  ( 0.000000000000000000, 0.000000000000000000, 3.000000000000000000 ) ) ;
#219 = CALENDAR_DATE ( 2023, 12, 2 ) ;
#220 = CARTESIAN_POINT ( 'NONE',  ( 0.000000000000000000, 0.000000000000000000, 0.000000000000000000 ) ) ;
#221 = APPROVAL_DATE_TIME ( #2, #159 ) ;
#222 = CIRCLE ( 'NONE', #139, 3.500000000000000000 ) ;
#223 = CARTESIAN_POINT ( 'NONE',  ( 0.000000000000000000, 0.000000000000000000, 3.000000000000000000 ) ) ;
#224 = AXIS2_PLACEMENT_3D ( 'NONE', #123, #175, #17 ) ;
#225 = APPROVAL_PERSON_ORGANIZATION ( #206, #214, #131 ) ;
#226 = CARTESIAN_POINT ( 'NONE',  ( 0.000000000000000000, 0.000000000000000000, 0.000000000000000000 ) ) ;
#227 = APPROVAL_DATE_TIME ( #134, #202 ) ;
#228 = VERTEX_POINT ( 'NONE', #192 ) ;
#229 = AXIS2_PLACEMENT_3D ( 'NONE', #239, #144, #28 ) ;
#230 = ORIENTED_EDGE ( 'NONE', *, *, #182, .T. ) ;
#231 = ADVANCED_FACE ( 'NONE', ( #18 ), #193, .T. ) ;
#232 = AXIS2_PLACEMENT_3D ( 'NONE', #168, #246, #38 ) ;
#233 = CC_DESIGN_APPROVAL ( #202, ( #195 ) ) ;
#234 = CARTESIAN_POINT ( 'NONE',  ( 0.000000000000000000, 0.000000000000000000, 315.0000000000000000 ) ) ;
#235 = EDGE_CURVE ( 'NONE', #228, #198, #176, .T. ) ;
#236 = CARTESIAN_POINT ( 'NONE',  ( 3.500000000000000000, 4.286263797015736595E-16, 3.000000000000000000 ) ) ;
#237 = APPROVAL_PERSON_ORGANIZATION ( #241, #202, #169 ) ;
#238 = EDGE_CURVE ( 'NONE', #200, #198, #190, .T. ) ;
#239 = CARTESIAN_POINT ( 'NONE',  ( 0.000000000000000000, 0.000000000000000000, 315.0000000000000000 ) ) ;
#240 = CIRCLE ( 'NONE', #197, 1.750000000000000000 ) ;
#241 = PERSON_AND_ORGANIZATION ( #140, #6 ) ;
#242 = ORIENTED_EDGE ( 'NONE', *, *, #87, .T. ) ;
#243 = COORDINATED_UNIVERSAL_TIME_OFFSET ( 1, 0, .AHEAD. ) ;
#244 = PERSON_AND_ORGANIZATION_ROLE ( 'design_supplier' ) ;
#245 = EDGE_LOOP ( 'NONE', ( #110, #83 ) ) ;
#246 = DIRECTION ( 'NONE',  ( -0.000000000000000000, -0.000000000000000000, -1.000000000000000000 ) ) ;
#247 = ORIENTED_EDGE ( 'NONE', *, *, #39, .F. ) ;
#248 = EDGE_CURVE ( 'NONE', #128, #132, #42, .T. ) ;
#249 = CIRCLE ( 'NONE', #229, 1.750000000000000000 ) ;
#250 = CARTESIAN_POINT ( 'NONE',  ( 0.000000000000000000, 0.000000000000000000, 315.0000000000000000 ) ) ;
#251 = DIRECTION ( 'NONE',  ( -1.000000000000000000, 0.000000000000000000, 0.000000000000000000 ) ) ;
#252 = EDGE_CURVE ( 'NONE', #128, #52, #208, .T. ) ;
#253 = DIRECTION ( 'NONE',  ( 1.000000000000000000, 0.000000000000000000, -0.000000000000000000 ) ) ;
#254 = AXIS2_PLACEMENT_3D ( 'NONE', #130, #166, #116 ) ;
#255 = DIRECTION ( 'NONE',  ( 0.000000000000000000, 0.000000000000000000, 1.000000000000000000 ) ) ;
ENDSEC;
END-ISO-10303-21;
