ISO-10303-21;
HEADER;
FILE_DESCRIPTION (( 'STEP AP203' ),
    '1' );
FILE_NAME ('d3c2.STEP',
    '2023-02-12T10:43:56',
    ( '' ),
    ( '' ),
    'SwSTEP 2.0',
    'SolidWorks 2019',
    '' );
FILE_SCHEMA (( 'CONFIG_CONTROL_DESIGN' ));
ENDSEC;

DATA;
#1 = CYLINDRICAL_SURFACE ( 'NONE', #234, 11.00000000000000000 ) ;
#2 = CARTESIAN_POINT ( 'NONE',  ( 0.000000000000000000, 0.000000000000000000, 0.000000000000000000 ) ) ;
#3 =( GEOMETRIC_REPRESENTATION_CONTEXT ( 3 ) GLOBAL_UNCERTAINTY_ASSIGNED_CONTEXT ( ( #199 ) ) GLOBAL_UNIT_ASSIGNED_CONTEXT ( ( #182, #181, #239 ) ) REPRESENTATION_CONTEXT ( 'NONE', 'WORKASPACE' ) );
#4 = APPLICATION_PROTOCOL_DEFINITION ( 'international standard', 'config_control_design', 1994, #120 ) ;
#5 = FACE_OUTER_BOUND ( 'NONE', #29, .T. ) ;
#6 = ORIENTED_EDGE ( 'NONE', *, *, #58, .F. ) ;
#7 = ORIENTED_EDGE ( 'NONE', *, *, #86, .T. ) ;
#8 = VERTEX_POINT ( 'NONE', #119 ) ;
#9 = APPROVAL_STATUS ( 'not_yet_approved' ) ;
#10 = ORIENTED_EDGE ( 'NONE', *, *, #58, .T. ) ;
#11 = APPROVAL_DATE_TIME ( #26, #14 ) ;
#12 = ORIENTED_EDGE ( 'NONE', *, *, #196, .F. ) ;
#13 = DIRECTION ( 'NONE',  ( 0.000000000000000000, 0.000000000000000000, 1.000000000000000000 ) ) ;
#14 = APPROVAL ( #209, 'NEURÈENÝ' ) ;
#15 = CLOSED_SHELL ( 'NONE', ( #103, #240, #36, #133, #222, #170, #85 ) ) ;
#16 = LINE ( 'NONE', #137, #141 ) ;
#17 = DIRECTION ( 'NONE',  ( 1.000000000000000000, 0.000000000000000000, 0.000000000000000000 ) ) ;
#18 = FACE_OUTER_BOUND ( 'NONE', #114, .T. ) ;
#19 = APPROVAL_STATUS ( 'not_yet_approved' ) ;
#20 = LOCAL_TIME ( 11, 43, 56.00000000000000000, #246 ) ;
#21 = CARTESIAN_POINT ( 'NONE',  ( 0.000000000000000000, 0.000000000000000000, 7.000000000000000000 ) ) ;
#22 = CIRCLE ( 'NONE', #169, 8.000000000000000000 ) ;
#23 = DATE_AND_TIME ( #202, #80 ) ;
#24 = PERSON_AND_ORGANIZATION_ROLE ( 'classification_officer' ) ;
#25 = ORIENTED_EDGE ( 'NONE', *, *, #153, .F. ) ;
#26 = DATE_AND_TIME ( #189, #46 ) ;
#27 = VECTOR ( 'NONE', #212, 1000.000000000000000 ) ;
#28 = ORIENTED_EDGE ( 'NONE', *, *, #49, .T. ) ;
#29 = EDGE_LOOP ( 'NONE', ( #72, #28, #110, #211 ) ) ;
#30 = DIRECTION ( 'NONE',  ( 0.000000000000000000, 0.000000000000000000, 1.000000000000000000 ) ) ;
#31 = CARTESIAN_POINT ( 'NONE',  ( 0.000000000000000000, 0.000000000000000000, 7.000000000000000000 ) ) ;
#32 = FACE_OUTER_BOUND ( 'NONE', #148, .T. ) ;
#33 = CARTESIAN_POINT ( 'NONE',  ( 0.000000000000000000, 0.000000000000000000, 7.000000000000000000 ) ) ;
#34 = DIRECTION ( 'NONE',  ( 0.000000000000000000, 0.000000000000000000, 1.000000000000000000 ) ) ;
#35 = PERSON_AND_ORGANIZATION ( #60, #215 ) ;
#36 = ADVANCED_FACE ( 'NONE', ( #195 ), #227, .T. ) ;
#37 = LOCAL_TIME ( 11, 43, 56.00000000000000000, #163 ) ;
#38 = CARTESIAN_POINT ( 'NONE',  ( 0.000000000000000000, 0.000000000000000000, 0.000000000000000000 ) ) ;
#39 = MECHANICAL_CONTEXT ( 'NONE', #229, 'mechanical' ) ;
#40 = APPROVAL_DATE_TIME ( #220, #252 ) ;
#41 = AXIS2_PLACEMENT_3D ( 'NONE', #38, #82, #179 ) ;
#42 = CC_DESIGN_APPROVAL ( #252, ( #107 ) ) ;
#43 = ORIENTED_EDGE ( 'NONE', *, *, #191, .T. ) ;
#44 = CIRCLE ( 'NONE', #138, 11.00000000000000000 ) ;
#45 = APPROVAL_DATE_TIME ( #249, #121 ) ;
#46 = LOCAL_TIME ( 11, 43, 56.00000000000000000, #127 ) ;
#47 = ORIENTED_EDGE ( 'NONE', *, *, #217, .F. ) ;
#48 = CARTESIAN_POINT ( 'NONE',  ( -11.00000000000000000, 0.000000000000000000, 7.000000000000000000 ) ) ;
#49 = EDGE_CURVE ( 'NONE', #244, #67, #231, .T. ) ;
#50 = AXIS2_PLACEMENT_3D ( 'NONE', #192, #228, #74 ) ;
#51 = DIRECTION ( 'NONE',  ( -0.000000000000000000, -0.000000000000000000, -1.000000000000000000 ) ) ;
#52 = CIRCLE ( 'NONE', #63, 11.00000000000000000 ) ;
#53 = DIRECTION ( 'NONE',  ( -0.000000000000000000, -0.000000000000000000, -1.000000000000000000 ) ) ;
#54 = CC_DESIGN_PERSON_AND_ORGANIZATION_ASSIGNMENT ( #126, #123, ( #107 ) ) ;
#55 = CARTESIAN_POINT ( 'NONE',  ( 0.000000000000000000, 0.000000000000000000, 250.0000000000000000 ) ) ;
#56 = CC_DESIGN_APPROVAL ( #121, ( #180 ) ) ;
#57 = DIRECTION ( 'NONE',  ( 0.000000000000000000, 0.000000000000000000, 1.000000000000000000 ) ) ;
#58 = EDGE_CURVE ( 'NONE', #147, #67, #250, .T. ) ;
#59 = APPROVAL_ROLE ( '' ) ;
#60 = PERSON ( 'NEURÈENÝ', 'NEURÈENÝ', 'NEURÈENÝ', ('NEURÈENÝ'), ('NEURÈENÝ'), ('NEURÈENÝ') ) ;
#61 = CIRCLE ( 'NONE', #207, 8.000000000000000000 ) ;
#62 = DIRECTION ( 'NONE',  ( 1.000000000000000000, 0.000000000000000000, 0.000000000000000000 ) ) ;
#63 = AXIS2_PLACEMENT_3D ( 'NONE', #190, #34, #116 ) ;
#64 = CC_DESIGN_PERSON_AND_ORGANIZATION_ASSIGNMENT ( #130, #24, ( #180 ) ) ;
#65 = ORIENTED_EDGE ( 'NONE', *, *, #153, .T. ) ;
#66 = DESIGN_CONTEXT ( 'detailed design', #120, 'design' ) ;
#67 = VERTEX_POINT ( 'NONE', #117 ) ;
#68 = CC_DESIGN_DATE_AND_TIME_ASSIGNMENT ( #23, #84, ( #107 ) ) ;
#69 = DATE_TIME_ROLE ( 'classification_date' ) ;
#70 = ORIENTED_EDGE ( 'NONE', *, *, #145, .F. ) ;
#71 = SHAPE_DEFINITION_REPRESENTATION ( #151, #156 ) ;
#72 = ORIENTED_EDGE ( 'NONE', *, *, #167, .F. ) ;
#73 = DIRECTION ( 'NONE',  ( 0.000000000000000000, 0.000000000000000000, 1.000000000000000000 ) ) ;
#74 = DIRECTION ( 'NONE',  ( -1.000000000000000000, 0.000000000000000000, 0.000000000000000000 ) ) ;
#75 = APPROVAL_PERSON_ORGANIZATION ( #35, #252, #59 ) ;
#76 = CARTESIAN_POINT ( 'NONE',  ( 0.000000000000000000, 0.000000000000000000, 7.000000000000000000 ) ) ;
#77 = CARTESIAN_POINT ( 'NONE',  ( 0.000000000000000000, 0.000000000000000000, 7.000000000000000000 ) ) ;
#78 = PLANE ( 'NONE',  #91 ) ;
#79 = CIRCLE ( 'NONE', #197, 8.000000000000000000 ) ;
#80 = LOCAL_TIME ( 11, 43, 56.00000000000000000, #164 ) ;
#81 = DIRECTION ( 'NONE',  ( -0.000000000000000000, -0.000000000000000000, -1.000000000000000000 ) ) ;
#82 = DIRECTION ( 'NONE',  ( 0.000000000000000000, 0.000000000000000000, 1.000000000000000000 ) ) ;
#83 = PERSON_AND_ORGANIZATION_ROLE ( 'design_owner' ) ;
#84 = DATE_TIME_ROLE ( 'creation_date' ) ;
#85 = ADVANCED_FACE ( 'NONE', ( #255 ), #78, .T. ) ;
#86 = EDGE_CURVE ( 'NONE', #88, #8, #125, .T. ) ;
#87 = PLANE ( 'NONE',  #41 ) ;
#88 = VERTEX_POINT ( 'NONE', #174 ) ;
#89 = CC_DESIGN_SECURITY_CLASSIFICATION ( #180, ( #136 ) ) ;
#90 = EDGE_LOOP ( 'NONE', ( #206, #251 ) ) ;
#91 = AXIS2_PLACEMENT_3D ( 'NONE', #55, #254, #97 ) ;
#92 = APPROVAL_ROLE ( '' ) ;
#93 = CALENDAR_DATE ( 2023, 12, 2 ) ;
#94 = EDGE_LOOP ( 'NONE', ( #65, #7 ) ) ;
#95 = DIRECTION ( 'NONE',  ( -0.000000000000000000, -0.000000000000000000, -1.000000000000000000 ) ) ;
#96 = CYLINDRICAL_SURFACE ( 'NONE', #177, 8.000000000000000000 ) ;
#97 = DIRECTION ( 'NONE',  ( 1.000000000000000000, 0.000000000000000000, -0.000000000000000000 ) ) ;
#98 = CIRCLE ( 'NONE', #149, 11.00000000000000000 ) ;
#99 = VECTOR ( 'NONE', #238, 1000.000000000000000 ) ;
#100 = CYLINDRICAL_SURFACE ( 'NONE', #50, 8.000000000000000000 ) ;
#101 = DIRECTION ( 'NONE',  ( -1.000000000000000000, 0.000000000000000000, 0.000000000000000000 ) ) ;
#102 = LINE ( 'NONE', #161, #99 ) ;
#103 = ADVANCED_FACE ( 'NONE', ( #32 ), #96, .T. ) ;
#104 = DIRECTION ( 'NONE',  ( 0.000000000000000000, 0.000000000000000000, 1.000000000000000000 ) ) ;
#105 = AXIS2_PLACEMENT_3D ( 'NONE', #160, #194, #155 ) ;
#106 = DIRECTION ( 'NONE',  ( 0.000000000000000000, 0.000000000000000000, 1.000000000000000000 ) ) ;
#107 = PRODUCT_DEFINITION ( 'NEZNÁMÝ', '', #136, #66 ) ;
#108 = DIRECTION ( 'NONE',  ( 1.000000000000000000, 0.000000000000000000, 0.000000000000000000 ) ) ;
#109 = EDGE_CURVE ( 'NONE', #150, #147, #214, .T. ) ;
#110 = ORIENTED_EDGE ( 'NONE', *, *, #219, .T. ) ;
#111 = PERSON_AND_ORGANIZATION_ROLE ( 'design_supplier' ) ;
#112 = ORIENTED_EDGE ( 'NONE', *, *, #86, .F. ) ;
#113 = DATE_AND_TIME ( #93, #204 ) ;
#114 = EDGE_LOOP ( 'NONE', ( #47, #25, #43, #131 ) ) ;
#115 = EDGE_LOOP ( 'NONE', ( #12, #224 ) ) ;
#116 = DIRECTION ( 'NONE',  ( 1.000000000000000000, 0.000000000000000000, 0.000000000000000000 ) ) ;
#117 = CARTESIAN_POINT ( 'NONE',  ( 11.00000000000000000, 1.347111479062088405E-15, 0.000000000000000000 ) ) ;
#118 = FACE_BOUND ( 'NONE', #115, .T. ) ;
#119 = CARTESIAN_POINT ( 'NONE',  ( -8.000000000000000000, 0.000000000000000000, 250.0000000000000000 ) ) ;
#120 = APPLICATION_CONTEXT ( 'configuration controlled 3d designs of mechanical parts and assemblies' ) ;
#121 = APPROVAL ( #9, 'NEURÈENÝ' ) ;
#122 = CARTESIAN_POINT ( 'NONE',  ( 11.00000000000000000, 1.347111479062088405E-15, 7.000000000000000000 ) ) ;
#123 = PERSON_AND_ORGANIZATION_ROLE ( 'creator' ) ;
#124 = PERSON_AND_ORGANIZATION ( #60, #215 ) ;
#125 = CIRCLE ( 'NONE', #105, 8.000000000000000000 ) ;
#126 = PERSON_AND_ORGANIZATION ( #60, #215 ) ;
#127 = COORDINATED_UNIVERSAL_TIME_OFFSET ( 1, 0, .AHEAD. ) ;
#128 = ORIENTED_EDGE ( 'NONE', *, *, #219, .F. ) ;
#129 = PRODUCT ( 'd3c2', 'd3c2', '', ( #39 ) ) ;
#130 = PERSON_AND_ORGANIZATION ( #60, #215 ) ;
#131 = ORIENTED_EDGE ( 'NONE', *, *, #196, .T. ) ;
#132 = CALENDAR_DATE ( 2023, 12, 2 ) ;
#133 = ADVANCED_FACE ( 'NONE', ( #118, #230 ), #232, .T. ) ;
#134 = VERTEX_POINT ( 'NONE', #198 ) ;
#135 = CARTESIAN_POINT ( 'NONE',  ( 0.000000000000000000, 0.000000000000000000, 0.000000000000000000 ) ) ;
#136 = PRODUCT_DEFINITION_FORMATION_WITH_SPECIFIED_SOURCE ( 'LIBOVOLNÝ', '', #129, .NOT_KNOWN. ) ;
#137 = CARTESIAN_POINT ( 'NONE',  ( -8.000000000000000000, 0.000000000000000000, 250.0000000000000000 ) ) ;
#138 = AXIS2_PLACEMENT_3D ( 'NONE', #76, #57, #17 ) ;
#139 = DIRECTION ( 'NONE',  ( -1.000000000000000000, 0.000000000000000000, 0.000000000000000000 ) ) ;
#140 = CARTESIAN_POINT ( 'NONE',  ( 0.000000000000000000, 0.000000000000000000, 250.0000000000000000 ) ) ;
#141 = VECTOR ( 'NONE', #213, 1000.000000000000000 ) ;
#142 = CARTESIAN_POINT ( 'NONE',  ( 0.000000000000000000, 0.000000000000000000, 250.0000000000000000 ) ) ;
#143 = APPLICATION_PROTOCOL_DEFINITION ( 'international standard', 'config_control_design', 1994, #229 ) ;
#144 = DIRECTION ( 'NONE',  ( 1.000000000000000000, 0.000000000000000000, 0.000000000000000000 ) ) ;
#145 = EDGE_CURVE ( 'NONE', #150, #244, #44, .T. ) ;
#146 = DIRECTION ( 'NONE',  ( 0.000000000000000000, 0.000000000000000000, 1.000000000000000000 ) ) ;
#147 = VERTEX_POINT ( 'NONE', #173 ) ;
#148 = EDGE_LOOP ( 'NONE', ( #112, #208, #186, #172 ) ) ;
#149 = AXIS2_PLACEMENT_3D ( 'NONE', #201, #104, #62 ) ;
#150 = VERTEX_POINT ( 'NONE', #48 ) ;
#151 = PRODUCT_DEFINITION_SHAPE ( 'NONE', 'NONE',  #107 ) ;
#152 = DIRECTION ( 'NONE',  ( 1.000000000000000000, 0.000000000000000000, -0.000000000000000000 ) ) ;
#153 = EDGE_CURVE ( 'NONE', #8, #88, #22, .T. ) ;
#154 = MANIFOLD_SOLID_BREP ( 'Pøidat vysunutím3', #15 ) ;
#155 = DIRECTION ( 'NONE',  ( 1.000000000000000000, 0.000000000000000000, 0.000000000000000000 ) ) ;
#156 = ADVANCED_BREP_SHAPE_REPRESENTATION ( 'd3c2', ( #154, #233 ), #3 ) ;
#157 = DIRECTION ( 'NONE',  ( 1.000000000000000000, 0.000000000000000000, 0.000000000000000000 ) ) ;
#158 = VERTEX_POINT ( 'NONE', #216 ) ;
#159 = CC_DESIGN_PERSON_AND_ORGANIZATION_ASSIGNMENT ( #225, #111, ( #136 ) ) ;
#160 = CARTESIAN_POINT ( 'NONE',  ( 0.000000000000000000, 0.000000000000000000, 250.0000000000000000 ) ) ;
#161 = CARTESIAN_POINT ( 'NONE',  ( 8.000000000000000000, 9.797174393178825657E-16, 250.0000000000000000 ) ) ;
#162 = AXIS2_PLACEMENT_3D ( 'NONE', #33, #73, #152 ) ;
#163 = COORDINATED_UNIVERSAL_TIME_OFFSET ( 1, 0, .AHEAD. ) ;
#164 = COORDINATED_UNIVERSAL_TIME_OFFSET ( 1, 0, .AHEAD. ) ;
#165 = PERSON_AND_ORGANIZATION ( #60, #215 ) ;
#166 = CARTESIAN_POINT ( 'NONE',  ( 0.000000000000000000, 0.000000000000000000, 7.000000000000000000 ) ) ;
#167 = EDGE_CURVE ( 'NONE', #244, #150, #52, .T. ) ;
#168 = ORIENTED_EDGE ( 'NONE', *, *, #109, .T. ) ;
#169 = AXIS2_PLACEMENT_3D ( 'NONE', #142, #30, #157 ) ;
#170 = ADVANCED_FACE ( 'NONE', ( #18 ), #100, .T. ) ;
#171 = PERSON_AND_ORGANIZATION ( #60, #215 ) ;
#172 = ORIENTED_EDGE ( 'NONE', *, *, #191, .F. ) ;
#173 = CARTESIAN_POINT ( 'NONE',  ( -11.00000000000000000, 0.000000000000000000, 0.000000000000000000 ) ) ;
#174 = CARTESIAN_POINT ( 'NONE',  ( 8.000000000000000000, 9.797174393178825657E-16, 250.0000000000000000 ) ) ;
#175 = DIRECTION ( 'NONE',  ( 1.000000000000000000, 0.000000000000000000, 0.000000000000000000 ) ) ;
#176 = CC_DESIGN_PERSON_AND_ORGANIZATION_ASSIGNMENT ( #223, #184, ( #136 ) ) ;
#177 = AXIS2_PLACEMENT_3D ( 'NONE', #140, #51, #139 ) ;
#178 = CARTESIAN_POINT ( 'NONE',  ( 11.00000000000000000, 1.347111479062088405E-15, 7.000000000000000000 ) ) ;
#179 = DIRECTION ( 'NONE',  ( 1.000000000000000000, 0.000000000000000000, -0.000000000000000000 ) ) ;
#180 = SECURITY_CLASSIFICATION ( '', '', #188 ) ;
#181 =( NAMED_UNIT ( * ) PLANE_ANGLE_UNIT ( ) SI_UNIT ( $, .RADIAN. ) );
#182 =( LENGTH_UNIT ( ) NAMED_UNIT ( * ) SI_UNIT ( .MILLI., .METRE. ) );
#183 = DIRECTION ( 'NONE',  ( 0.000000000000000000, 0.000000000000000000, 1.000000000000000000 ) ) ;
#184 = PERSON_AND_ORGANIZATION_ROLE ( 'creator' ) ;
#185 = COORDINATED_UNIVERSAL_TIME_OFFSET ( 1, 0, .AHEAD. ) ;
#186 = ORIENTED_EDGE ( 'NONE', *, *, #247, .T. ) ;
#187 = APPROVAL_PERSON_ORGANIZATION ( #165, #14, #242 ) ;
#188 = SECURITY_CLASSIFICATION_LEVEL ( 'unclassified' ) ;
#189 = CALENDAR_DATE ( 2023, 12, 2 ) ;
#190 = CARTESIAN_POINT ( 'NONE',  ( 0.000000000000000000, 0.000000000000000000, 7.000000000000000000 ) ) ;
#191 = EDGE_CURVE ( 'NONE', #8, #158, #16, .T. ) ;
#192 = CARTESIAN_POINT ( 'NONE',  ( 0.000000000000000000, 0.000000000000000000, 250.0000000000000000 ) ) ;
#193 = AXIS2_PLACEMENT_3D ( 'NONE', #135, #13, #175 ) ;
#194 = DIRECTION ( 'NONE',  ( 0.000000000000000000, 0.000000000000000000, 1.000000000000000000 ) ) ;
#195 = FACE_OUTER_BOUND ( 'NONE', #221, .T. ) ;
#196 = EDGE_CURVE ( 'NONE', #158, #134, #61, .T. ) ;
#197 = AXIS2_PLACEMENT_3D ( 'NONE', #21, #106, #241 ) ;
#198 = CARTESIAN_POINT ( 'NONE',  ( 8.000000000000000000, 9.797174393178825657E-16, 7.000000000000000000 ) ) ;
#199 = UNCERTAINTY_MEASURE_WITH_UNIT (LENGTH_MEASURE( 1.000000000000000082E-05 ), #182, 'distance_accuracy_value', 'NONE');
#200 = FACE_OUTER_BOUND ( 'NONE', #210, .T. ) ;
#201 = CARTESIAN_POINT ( 'NONE',  ( 0.000000000000000000, 0.000000000000000000, 0.000000000000000000 ) ) ;
#202 = CALENDAR_DATE ( 2023, 12, 2 ) ;
#203 = CC_DESIGN_PERSON_AND_ORGANIZATION_ASSIGNMENT ( #124, #83, ( #129 ) ) ;
#204 = LOCAL_TIME ( 11, 43, 56.00000000000000000, #185 ) ;
#205 = AXIS2_PLACEMENT_3D ( 'NONE', #77, #53, #101 ) ;
#206 = ORIENTED_EDGE ( 'NONE', *, *, #145, .T. ) ;
#207 = AXIS2_PLACEMENT_3D ( 'NONE', #31, #183, #108 ) ;
#208 = ORIENTED_EDGE ( 'NONE', *, *, #217, .T. ) ;
#209 = APPROVAL_STATUS ( 'not_yet_approved' ) ;
#210 = EDGE_LOOP ( 'NONE', ( #6, #128 ) ) ;
#211 = ORIENTED_EDGE ( 'NONE', *, *, #109, .F. ) ;
#212 = DIRECTION ( 'NONE',  ( -0.000000000000000000, -0.000000000000000000, -1.000000000000000000 ) ) ;
#213 = DIRECTION ( 'NONE',  ( -0.000000000000000000, -0.000000000000000000, -1.000000000000000000 ) ) ;
#214 = LINE ( 'NONE', #253, #237 ) ;
#215 = ORGANIZATION ( 'NEURÈENÝ', 'NEURÈENÝ', '' ) ;
#216 = CARTESIAN_POINT ( 'NONE',  ( -8.000000000000000000, 0.000000000000000000, 7.000000000000000000 ) ) ;
#217 = EDGE_CURVE ( 'NONE', #88, #134, #102, .T. ) ;
#218 = CALENDAR_DATE ( 2023, 12, 2 ) ;
#219 = EDGE_CURVE ( 'NONE', #67, #147, #98, .T. ) ;
#220 = DATE_AND_TIME ( #218, #37 ) ;
#221 = EDGE_LOOP ( 'NONE', ( #245, #70, #168, #10 ) ) ;
#222 = ADVANCED_FACE ( 'NONE', ( #200 ), #87, .F. ) ;
#223 = PERSON_AND_ORGANIZATION ( #60, #215 ) ;
#224 = ORIENTED_EDGE ( 'NONE', *, *, #247, .F. ) ;
#225 = PERSON_AND_ORGANIZATION ( #60, #215 ) ;
#226 = CC_DESIGN_DATE_AND_TIME_ASSIGNMENT ( #113, #69, ( #180 ) ) ;
#227 = CYLINDRICAL_SURFACE ( 'NONE', #205, 11.00000000000000000 ) ;
#228 = DIRECTION ( 'NONE',  ( -0.000000000000000000, -0.000000000000000000, -1.000000000000000000 ) ) ;
#229 = APPLICATION_CONTEXT ( 'configuration controlled 3d designs of mechanical parts and assemblies' ) ;
#230 = FACE_OUTER_BOUND ( 'NONE', #90, .T. ) ;
#231 = LINE ( 'NONE', #178, #27 ) ;
#232 = PLANE ( 'NONE',  #162 ) ;
#233 = AXIS2_PLACEMENT_3D ( 'NONE', #2, #146, #144 ) ;
#234 = AXIS2_PLACEMENT_3D ( 'NONE', #166, #81, #235 ) ;
#235 = DIRECTION ( 'NONE',  ( -1.000000000000000000, 0.000000000000000000, 0.000000000000000000 ) ) ;
#236 = PRODUCT_RELATED_PRODUCT_CATEGORY ( 'detail', '', ( #129 ) ) ;
#237 = VECTOR ( 'NONE', #95, 1000.000000000000000 ) ;
#238 = DIRECTION ( 'NONE',  ( -0.000000000000000000, -0.000000000000000000, -1.000000000000000000 ) ) ;
#239 =( NAMED_UNIT ( * ) SI_UNIT ( $, .STERADIAN. ) SOLID_ANGLE_UNIT ( ) );
#240 = ADVANCED_FACE ( 'NONE', ( #5 ), #1, .T. ) ;
#241 = DIRECTION ( 'NONE',  ( 1.000000000000000000, 0.000000000000000000, 0.000000000000000000 ) ) ;
#242 = APPROVAL_ROLE ( '' ) ;
#243 = APPROVAL_PERSON_ORGANIZATION ( #171, #121, #92 ) ;
#244 = VERTEX_POINT ( 'NONE', #122 ) ;
#245 = ORIENTED_EDGE ( 'NONE', *, *, #49, .F. ) ;
#246 = COORDINATED_UNIVERSAL_TIME_OFFSET ( 1, 0, .AHEAD. ) ;
#247 = EDGE_CURVE ( 'NONE', #134, #158, #79, .T. ) ;
#248 = CC_DESIGN_APPROVAL ( #14, ( #136 ) ) ;
#249 = DATE_AND_TIME ( #132, #20 ) ;
#250 = CIRCLE ( 'NONE', #193, 11.00000000000000000 ) ;
#251 = ORIENTED_EDGE ( 'NONE', *, *, #167, .T. ) ;
#252 = APPROVAL ( #19, 'NEURÈENÝ' ) ;
#253 = CARTESIAN_POINT ( 'NONE',  ( -11.00000000000000000, 0.000000000000000000, 7.000000000000000000 ) ) ;
#254 = DIRECTION ( 'NONE',  ( 0.000000000000000000, 0.000000000000000000, 1.000000000000000000 ) ) ;
#255 = FACE_OUTER_BOUND ( 'NONE', #94, .T. ) ;
ENDSEC;
END-ISO-10303-21;
