ISO-10303-21;
HEADER;
FILE_DESCRIPTION (( 'STEP AP203' ),
    '1' );
FILE_NAME ('e3f2.STEP',
    '2023-02-12T10:56:45',
    ( '' ),
    ( '' ),
    'SwSTEP 2.0',
    'SolidWorks 2019',
    '' );
FILE_SCHEMA (( 'CONFIG_CONTROL_DESIGN' ));
ENDSEC;

DATA;
#1 = CARTESIAN_POINT ( 'NONE',  ( 9.000000000000000000, 1.102182119232617714E-15, 7.000000000000000000 ) ) ;
#2 = PLANE ( 'NONE',  #174 ) ;
#3 = CC_DESIGN_SECURITY_CLASSIFICATION ( #35, ( #235 ) ) ;
#4 = EDGE_CURVE ( 'NONE', #150, #134, #196, .T. ) ;
#5 = PERSON_AND_ORGANIZATION_ROLE ( 'classification_officer' ) ;
#6 = DATE_AND_TIME ( #72, #183 ) ;
#7 = COORDINATED_UNIVERSAL_TIME_OFFSET ( 1, 0, .AHEAD. ) ;
#8 = PERSON_AND_ORGANIZATION ( #37, #223 ) ;
#9 = CALENDAR_DATE ( 2023, 12, 2 ) ;
#10 = DIRECTION ( 'NONE',  ( 0.000000000000000000, 0.000000000000000000, 1.000000000000000000 ) ) ;
#11 = FACE_OUTER_BOUND ( 'NONE', #178, .T. ) ;
#12 = APPROVAL_STATUS ( 'not_yet_approved' ) ;
#13 = DIRECTION ( 'NONE',  ( 1.000000000000000000, 0.000000000000000000, 0.000000000000000000 ) ) ;
#14 = EDGE_CURVE ( 'NONE', #169, #106, #110, .T. ) ;
#15 = CC_DESIGN_APPROVAL ( #195, ( #235 ) ) ;
#16 = DIRECTION ( 'NONE',  ( 0.000000000000000000, 0.000000000000000000, 1.000000000000000000 ) ) ;
#17 = CARTESIAN_POINT ( 'NONE',  ( 0.000000000000000000, 0.000000000000000000, 630.0000000000000000 ) ) ;
#18 = DIRECTION ( 'NONE',  ( 1.000000000000000000, 0.000000000000000000, 0.000000000000000000 ) ) ;
#19 = AXIS2_PLACEMENT_3D ( 'NONE', #26, #244, #73 ) ;
#20 = DIRECTION ( 'NONE',  ( -0.000000000000000000, -0.000000000000000000, -1.000000000000000000 ) ) ;
#21 = UNCERTAINTY_MEASURE_WITH_UNIT (LENGTH_MEASURE( 1.000000000000000082E-05 ), #53, 'distance_accuracy_value', 'NONE');
#22 = DATE_AND_TIME ( #170, #158 ) ;
#23 = AXIS2_PLACEMENT_3D ( 'NONE', #156, #117, #18 ) ;
#24 = EDGE_CURVE ( 'NONE', #153, #134, #112, .T. ) ;
#25 = AXIS2_PLACEMENT_3D ( 'NONE', #17, #20, #56 ) ;
#26 = CARTESIAN_POINT ( 'NONE',  ( 0.000000000000000000, 0.000000000000000000, 7.000000000000000000 ) ) ;
#27 =( NAMED_UNIT ( * ) SI_UNIT ( $, .STERADIAN. ) SOLID_ANGLE_UNIT ( ) );
#28 = SECURITY_CLASSIFICATION_LEVEL ( 'unclassified' ) ;
#29 = CARTESIAN_POINT ( 'NONE',  ( 0.000000000000000000, 0.000000000000000000, 630.0000000000000000 ) ) ;
#30 = COORDINATED_UNIVERSAL_TIME_OFFSET ( 1, 0, .AHEAD. ) ;
#31 = CIRCLE ( 'NONE', #23, 9.000000000000000000 ) ;
#32 = APPROVAL ( #12, 'NEURÈENÝ' ) ;
#33 = DIRECTION ( 'NONE',  ( 0.000000000000000000, 0.000000000000000000, 1.000000000000000000 ) ) ;
#34 = PLANE ( 'NONE',  #19 ) ;
#35 = SECURITY_CLASSIFICATION ( '', '', #28 ) ;
#36 = EDGE_LOOP ( 'NONE', ( #69, #61 ) ) ;
#37 = PERSON ( 'NEURÈENÝ', 'NEURÈENÝ', 'NEURÈENÝ', ('NEURÈENÝ'), ('NEURÈENÝ'), ('NEURÈENÝ') ) ;
#38 = DIRECTION ( 'NONE',  ( -1.000000000000000000, 0.000000000000000000, 0.000000000000000000 ) ) ;
#39 = DIRECTION ( 'NONE',  ( -1.000000000000000000, 0.000000000000000000, 0.000000000000000000 ) ) ;
#40 = ORIENTED_EDGE ( 'NONE', *, *, #24, .T. ) ;
#41 = CYLINDRICAL_SURFACE ( 'NONE', #25, 6.099999999999999645 ) ;
#42 = FACE_OUTER_BOUND ( 'NONE', #254, .T. ) ;
#43 = EDGE_CURVE ( 'NONE', #217, #119, #227, .T. ) ;
#44 = ORIENTED_EDGE ( 'NONE', *, *, #63, .F. ) ;
#45 = EDGE_CURVE ( 'NONE', #119, #169, #128, .T. ) ;
#46 = APPROVAL_PERSON_ORGANIZATION ( #70, #32, #98 ) ;
#47 = ORIENTED_EDGE ( 'NONE', *, *, #43, .F. ) ;
#48 = ORIENTED_EDGE ( 'NONE', *, *, #137, .F. ) ;
#49 = DIRECTION ( 'NONE',  ( 1.000000000000000000, 0.000000000000000000, 0.000000000000000000 ) ) ;
#50 = PERSON_AND_ORGANIZATION ( #37, #223 ) ;
#51 = MANIFOLD_SOLID_BREP ( 'Pøidat vysunutím3', #226 ) ;
#52 = CC_DESIGN_PERSON_AND_ORGANIZATION_ASSIGNMENT ( #154, #62, ( #235 ) ) ;
#53 =( LENGTH_UNIT ( ) NAMED_UNIT ( * ) SI_UNIT ( .MILLI., .METRE. ) );
#54 = APPROVAL_ROLE ( '' ) ;
#55 = LOCAL_TIME ( 11, 56, 45.00000000000000000, #68 ) ;
#56 = DIRECTION ( 'NONE',  ( -1.000000000000000000, 0.000000000000000000, 0.000000000000000000 ) ) ;
#57 = EDGE_LOOP ( 'NONE', ( #48, #228 ) ) ;
#58 = DIRECTION ( 'NONE',  ( 1.000000000000000000, 0.000000000000000000, 0.000000000000000000 ) ) ;
#59 = CYLINDRICAL_SURFACE ( 'NONE', #138, 6.099999999999999645 ) ;
#60 = CYLINDRICAL_SURFACE ( 'NONE', #163, 9.000000000000000000 ) ;
#61 = ORIENTED_EDGE ( 'NONE', *, *, #103, .F. ) ;
#62 = PERSON_AND_ORGANIZATION_ROLE ( 'creator' ) ;
#63 = EDGE_CURVE ( 'NONE', #119, #217, #252, .T. ) ;
#64 = DIRECTION ( 'NONE',  ( -1.000000000000000000, 0.000000000000000000, 0.000000000000000000 ) ) ;
#65 = ORIENTED_EDGE ( 'NONE', *, *, #224, .T. ) ;
#66 = AXIS2_PLACEMENT_3D ( 'NONE', #149, #16, #58 ) ;
#67 = APPROVAL_PERSON_ORGANIZATION ( #50, #195, #54 ) ;
#68 = COORDINATED_UNIVERSAL_TIME_OFFSET ( 1, 0, .AHEAD. ) ;
#69 = ORIENTED_EDGE ( 'NONE', *, *, #14, .F. ) ;
#70 = PERSON_AND_ORGANIZATION ( #37, #223 ) ;
#71 = ADVANCED_FACE ( 'NONE', ( #11 ), #88, .T. ) ;
#72 = CALENDAR_DATE ( 2023, 12, 2 ) ;
#73 = DIRECTION ( 'NONE',  ( 1.000000000000000000, 0.000000000000000000, -0.000000000000000000 ) ) ;
#74 = CARTESIAN_POINT ( 'NONE',  ( 6.099999999999999645, 7.470345474798854293E-16, 630.0000000000000000 ) ) ;
#75 = ADVANCED_FACE ( 'NONE', ( #168 ), #2, .F. ) ;
#76 = DIRECTION ( 'NONE',  ( 0.000000000000000000, 0.000000000000000000, 1.000000000000000000 ) ) ;
#77 = CARTESIAN_POINT ( 'NONE',  ( 0.000000000000000000, 0.000000000000000000, 7.000000000000000000 ) ) ;
#78 = PERSON_AND_ORGANIZATION_ROLE ( 'design_owner' ) ;
#79 = AXIS2_PLACEMENT_3D ( 'NONE', #83, #118, #193 ) ;
#80 = DIRECTION ( 'NONE',  ( 1.000000000000000000, 0.000000000000000000, 0.000000000000000000 ) ) ;
#81 = FACE_OUTER_BOUND ( 'NONE', #136, .T. ) ;
#82 = DESIGN_CONTEXT ( 'detailed design', #194, 'design' ) ;
#83 = CARTESIAN_POINT ( 'NONE',  ( 0.000000000000000000, 0.000000000000000000, 630.0000000000000000 ) ) ;
#84 = ORIENTED_EDGE ( 'NONE', *, *, #250, .F. ) ;
#85 = AXIS2_PLACEMENT_3D ( 'NONE', #162, #148, #247 ) ;
#86 = CC_DESIGN_APPROVAL ( #32, ( #203 ) ) ;
#87 = ORIENTED_EDGE ( 'NONE', *, *, #103, .T. ) ;
#88 = PLANE ( 'NONE',  #79 ) ;
#89 = CARTESIAN_POINT ( 'NONE',  ( 0.000000000000000000, 0.000000000000000000, 7.000000000000000000 ) ) ;
#90 = PRODUCT ( 'e3f2', 'e3f2', '', ( #239 ) ) ;
#91 = AXIS2_PLACEMENT_3D ( 'NONE', #92, #173, #49 ) ;
#92 = CARTESIAN_POINT ( 'NONE',  ( 0.000000000000000000, 0.000000000000000000, 0.000000000000000000 ) ) ;
#93 = APPROVAL_DATE_TIME ( #6, #32 ) ;
#94 = CARTESIAN_POINT ( 'NONE',  ( 0.000000000000000000, 0.000000000000000000, 7.000000000000000000 ) ) ;
#95 = DIRECTION ( 'NONE',  ( -0.000000000000000000, -0.000000000000000000, -1.000000000000000000 ) ) ;
#96 = APPLICATION_PROTOCOL_DEFINITION ( 'international standard', 'config_control_design', 1994, #177 ) ;
#97 = CARTESIAN_POINT ( 'NONE',  ( -9.000000000000000000, 0.000000000000000000, 7.000000000000000000 ) ) ;
#98 = APPROVAL_ROLE ( '' ) ;
#99 = PERSON_AND_ORGANIZATION ( #37, #223 ) ;
#100 = AXIS2_PLACEMENT_3D ( 'NONE', #94, #76, #143 ) ;
#101 = CARTESIAN_POINT ( 'NONE',  ( -9.000000000000000000, 0.000000000000000000, 7.000000000000000000 ) ) ;
#102 = FACE_OUTER_BOUND ( 'NONE', #108, .T. ) ;
#103 = EDGE_CURVE ( 'NONE', #106, #169, #132, .T. ) ;
#104 = ORIENTED_EDGE ( 'NONE', *, *, #230, .T. ) ;
#105 = LOCAL_TIME ( 11, 56, 45.00000000000000000, #218 ) ;
#106 = VERTEX_POINT ( 'NONE', #192 ) ;
#107 = ORIENTED_EDGE ( 'NONE', *, *, #43, .T. ) ;
#108 = EDGE_LOOP ( 'NONE', ( #84, #65, #122, #165 ) ) ;
#109 = PERSON_AND_ORGANIZATION ( #37, #223 ) ;
#110 = CIRCLE ( 'NONE', #120, 6.099999999999999645 ) ;
#111 = DIRECTION ( 'NONE',  ( 1.000000000000000000, 0.000000000000000000, 0.000000000000000000 ) ) ;
#112 = LINE ( 'NONE', #97, #147 ) ;
#113 = DIRECTION ( 'NONE',  ( 0.000000000000000000, 0.000000000000000000, 1.000000000000000000 ) ) ;
#114 = AXIS2_PLACEMENT_3D ( 'NONE', #210, #255, #64 ) ;
#115 = LINE ( 'NONE', #74, #125 ) ;
#116 = ADVANCED_FACE ( 'NONE', ( #187 ), #41, .T. ) ;
#117 = DIRECTION ( 'NONE',  ( 0.000000000000000000, 0.000000000000000000, 1.000000000000000000 ) ) ;
#118 = DIRECTION ( 'NONE',  ( 0.000000000000000000, 0.000000000000000000, 1.000000000000000000 ) ) ;
#119 = VERTEX_POINT ( 'NONE', #190 ) ;
#120 = AXIS2_PLACEMENT_3D ( 'NONE', #77, #33, #13 ) ;
#121 = DIRECTION ( 'NONE',  ( -0.000000000000000000, -0.000000000000000000, -1.000000000000000000 ) ) ;
#122 = ORIENTED_EDGE ( 'NONE', *, *, #4, .T. ) ;
#123 = PRODUCT_RELATED_PRODUCT_CATEGORY ( 'detail', '', ( #90 ) ) ;
#124 = PERSON_AND_ORGANIZATION ( #37, #223 ) ;
#125 = VECTOR ( 'NONE', #179, 1000.000000000000000 ) ;
#126 = APPROVAL_STATUS ( 'not_yet_approved' ) ;
#127 = CC_DESIGN_DATE_AND_TIME_ASSIGNMENT ( #241, #142, ( #203 ) ) ;
#128 = LINE ( 'NONE', #242, #166 ) ;
#129 = CARTESIAN_POINT ( 'NONE',  ( 9.000000000000000000, 1.102182119232617714E-15, 0.000000000000000000 ) ) ;
#130 = CYLINDRICAL_SURFACE ( 'NONE', #114, 9.000000000000000000 ) ;
#131 = CARTESIAN_POINT ( 'NONE',  ( 6.099999999999999645, 7.470345474798854293E-16, 630.0000000000000000 ) ) ;
#132 = CIRCLE ( 'NONE', #188, 6.099999999999999645 ) ;
#133 = APPROVAL_DATE_TIME ( #22, #195 ) ;
#134 = VERTEX_POINT ( 'NONE', #249 ) ;
#135 = ORIENTED_EDGE ( 'NONE', *, *, #180, .T. ) ;
#136 = EDGE_LOOP ( 'NONE', ( #47, #104, #87, #141 ) ) ;
#137 = EDGE_CURVE ( 'NONE', #134, #150, #213, .T. ) ;
#138 = AXIS2_PLACEMENT_3D ( 'NONE', #208, #121, #39 ) ;
#139 = ORIENTED_EDGE ( 'NONE', *, *, #180, .F. ) ;
#140 = DATE_AND_TIME ( #9, #55 ) ;
#141 = ORIENTED_EDGE ( 'NONE', *, *, #45, .F. ) ;
#142 = DATE_TIME_ROLE ( 'creation_date' ) ;
#143 = DIRECTION ( 'NONE',  ( 1.000000000000000000, 0.000000000000000000, 0.000000000000000000 ) ) ;
#144 = APPROVAL_ROLE ( '' ) ;
#145 = LINE ( 'NONE', #243, #198 ) ;
#146 = APPROVAL_STATUS ( 'not_yet_approved' ) ;
#147 = VECTOR ( 'NONE', #95, 1000.000000000000000 ) ;
#148 = DIRECTION ( 'NONE',  ( 0.000000000000000000, 0.000000000000000000, 1.000000000000000000 ) ) ;
#149 = CARTESIAN_POINT ( 'NONE',  ( 0.000000000000000000, 0.000000000000000000, 0.000000000000000000 ) ) ;
#150 = VERTEX_POINT ( 'NONE', #129 ) ;
#151 = AXIS2_PLACEMENT_3D ( 'NONE', #205, #10, #111 ) ;
#152 = CARTESIAN_POINT ( 'NONE',  ( 0.000000000000000000, 0.000000000000000000, 0.000000000000000000 ) ) ;
#153 = VERTEX_POINT ( 'NONE', #101 ) ;
#154 = PERSON_AND_ORGANIZATION ( #37, #223 ) ;
#155 = CC_DESIGN_PERSON_AND_ORGANIZATION_ASSIGNMENT ( #8, #78, ( #90 ) ) ;
#156 = CARTESIAN_POINT ( 'NONE',  ( 0.000000000000000000, 0.000000000000000000, 7.000000000000000000 ) ) ;
#157 = ORIENTED_EDGE ( 'NONE', *, *, #45, .T. ) ;
#158 = LOCAL_TIME ( 11, 56, 45.00000000000000000, #30 ) ;
#159 = CC_DESIGN_PERSON_AND_ORGANIZATION_ASSIGNMENT ( #109, #201, ( #203 ) ) ;
#160 = CALENDAR_DATE ( 2023, 12, 2 ) ;
#161 = CALENDAR_DATE ( 2023, 12, 2 ) ;
#162 = CARTESIAN_POINT ( 'NONE',  ( 0.000000000000000000, 0.000000000000000000, 630.0000000000000000 ) ) ;
#163 = AXIS2_PLACEMENT_3D ( 'NONE', #234, #172, #38 ) ;
#164 = APPROVAL ( #146, 'NEURÈENÝ' ) ;
#165 = ORIENTED_EDGE ( 'NONE', *, *, #24, .F. ) ;
#166 = VECTOR ( 'NONE', #204, 1000.000000000000000 ) ;
#167 = ORIENTED_EDGE ( 'NONE', *, *, #250, .T. ) ;
#168 = FACE_OUTER_BOUND ( 'NONE', #57, .T. ) ;
#169 = VERTEX_POINT ( 'NONE', #231 ) ;
#170 = CALENDAR_DATE ( 2023, 12, 2 ) ;
#171 = ADVANCED_FACE ( 'NONE', ( #81 ), #59, .T. ) ;
#172 = DIRECTION ( 'NONE',  ( -0.000000000000000000, -0.000000000000000000, -1.000000000000000000 ) ) ;
#173 = DIRECTION ( 'NONE',  ( 0.000000000000000000, 0.000000000000000000, 1.000000000000000000 ) ) ;
#174 = AXIS2_PLACEMENT_3D ( 'NONE', #152, #232, #212 ) ;
#175 = LOCAL_TIME ( 11, 56, 45.00000000000000000, #7 ) ;
#176 = ADVANCED_FACE ( 'NONE', ( #42 ), #60, .T. ) ;
#177 = APPLICATION_CONTEXT ( 'configuration controlled 3d designs of mechanical parts and assemblies' ) ;
#178 = EDGE_LOOP ( 'NONE', ( #215, #107 ) ) ;
#179 = DIRECTION ( 'NONE',  ( -0.000000000000000000, -0.000000000000000000, -1.000000000000000000 ) ) ;
#180 = EDGE_CURVE ( 'NONE', #153, #207, #31, .T. ) ;
#181 = PERSON_AND_ORGANIZATION ( #37, #223 ) ;
#182 = DIRECTION ( 'NONE',  ( 1.000000000000000000, 0.000000000000000000, 0.000000000000000000 ) ) ;
#183 = LOCAL_TIME ( 11, 56, 45.00000000000000000, #246 ) ;
#184 = APPLICATION_PROTOCOL_DEFINITION ( 'international standard', 'config_control_design', 1994, #194 ) ;
#185 =( NAMED_UNIT ( * ) PLANE_ANGLE_UNIT ( ) SI_UNIT ( $, .RADIAN. ) );
#186 = DIRECTION ( 'NONE',  ( -0.000000000000000000, -0.000000000000000000, -1.000000000000000000 ) ) ;
#187 = FACE_OUTER_BOUND ( 'NONE', #221, .T. ) ;
#188 = AXIS2_PLACEMENT_3D ( 'NONE', #89, #211, #80 ) ;
#189 = APPROVAL_PERSON_ORGANIZATION ( #181, #164, #144 ) ;
#190 = CARTESIAN_POINT ( 'NONE',  ( -6.099999999999999645, 0.000000000000000000, 630.0000000000000000 ) ) ;
#191 = ORIENTED_EDGE ( 'NONE', *, *, #224, .F. ) ;
#192 = CARTESIAN_POINT ( 'NONE',  ( 6.099999999999999645, 7.470345474798854293E-16, 7.000000000000000000 ) ) ;
#193 = DIRECTION ( 'NONE',  ( 1.000000000000000000, 0.000000000000000000, -0.000000000000000000 ) ) ;
#194 = APPLICATION_CONTEXT ( 'configuration controlled 3d designs of mechanical parts and assemblies' ) ;
#195 = APPROVAL ( #126, 'NEURÈENÝ' ) ;
#196 = CIRCLE ( 'NONE', #91, 9.000000000000000000 ) ;
#197 = CC_DESIGN_APPROVAL ( #164, ( #35 ) ) ;
#198 = VECTOR ( 'NONE', #186, 1000.000000000000000 ) ;
#199 = APPROVAL_DATE_TIME ( #140, #164 ) ;
#200 = ADVANCED_FACE ( 'NONE', ( #102 ), #130, .T. ) ;
#201 = PERSON_AND_ORGANIZATION_ROLE ( 'creator' ) ;
#202 = DATE_TIME_ROLE ( 'classification_date' ) ;
#203 = PRODUCT_DEFINITION ( 'NEZNÁMÝ', '', #235, #82 ) ;
#204 = DIRECTION ( 'NONE',  ( -0.000000000000000000, -0.000000000000000000, -1.000000000000000000 ) ) ;
#205 = CARTESIAN_POINT ( 'NONE',  ( 0.000000000000000000, 0.000000000000000000, 0.000000000000000000 ) ) ;
#206 = EDGE_LOOP ( 'NONE', ( #135, #167 ) ) ;
#207 = VERTEX_POINT ( 'NONE', #1 ) ;
#208 = CARTESIAN_POINT ( 'NONE',  ( 0.000000000000000000, 0.000000000000000000, 630.0000000000000000 ) ) ;
#209 = CC_DESIGN_DATE_AND_TIME_ASSIGNMENT ( #220, #202, ( #35 ) ) ;
#210 = CARTESIAN_POINT ( 'NONE',  ( 0.000000000000000000, 0.000000000000000000, 7.000000000000000000 ) ) ;
#211 = DIRECTION ( 'NONE',  ( 0.000000000000000000, 0.000000000000000000, 1.000000000000000000 ) ) ;
#212 = DIRECTION ( 'NONE',  ( 1.000000000000000000, 0.000000000000000000, -0.000000000000000000 ) ) ;
#213 = CIRCLE ( 'NONE', #66, 9.000000000000000000 ) ;
#214 = CIRCLE ( 'NONE', #100, 9.000000000000000000 ) ;
#215 = ORIENTED_EDGE ( 'NONE', *, *, #63, .T. ) ;
#216 = CC_DESIGN_PERSON_AND_ORGANIZATION_ASSIGNMENT ( #124, #5, ( #35 ) ) ;
#217 = VERTEX_POINT ( 'NONE', #131 ) ;
#218 = COORDINATED_UNIVERSAL_TIME_OFFSET ( 1, 0, .AHEAD. ) ;
#219 = FACE_BOUND ( 'NONE', #36, .T. ) ;
#220 = DATE_AND_TIME ( #160, #175 ) ;
#221 = EDGE_LOOP ( 'NONE', ( #238, #44, #157, #233 ) ) ;
#222 = AXIS2_PLACEMENT_3D ( 'NONE', #29, #113, #182 ) ;
#223 = ORGANIZATION ( 'NEURÈENÝ', 'NEURÈENÝ', '' ) ;
#224 = EDGE_CURVE ( 'NONE', #207, #150, #145, .T. ) ;
#225 = FACE_OUTER_BOUND ( 'NONE', #206, .T. ) ;
#226 = CLOSED_SHELL ( 'NONE', ( #171, #200, #176, #248, #75, #116, #71 ) ) ;
#227 = CIRCLE ( 'NONE', #85, 6.099999999999999645 ) ;
#228 = ORIENTED_EDGE ( 'NONE', *, *, #4, .F. ) ;
#229 =( GEOMETRIC_REPRESENTATION_CONTEXT ( 3 ) GLOBAL_UNCERTAINTY_ASSIGNED_CONTEXT ( ( #21 ) ) GLOBAL_UNIT_ASSIGNED_CONTEXT ( ( #53, #185, #27 ) ) REPRESENTATION_CONTEXT ( 'NONE', 'WORKASPACE' ) );
#230 = EDGE_CURVE ( 'NONE', #217, #106, #115, .T. ) ;
#231 = CARTESIAN_POINT ( 'NONE',  ( -6.099999999999999645, 0.000000000000000000, 7.000000000000000000 ) ) ;
#232 = DIRECTION ( 'NONE',  ( 0.000000000000000000, 0.000000000000000000, 1.000000000000000000 ) ) ;
#233 = ORIENTED_EDGE ( 'NONE', *, *, #14, .T. ) ;
#234 = CARTESIAN_POINT ( 'NONE',  ( 0.000000000000000000, 0.000000000000000000, 7.000000000000000000 ) ) ;
#235 = PRODUCT_DEFINITION_FORMATION_WITH_SPECIFIED_SOURCE ( 'LIBOVOLNÝ', '', #90, .NOT_KNOWN. ) ;
#236 = CC_DESIGN_PERSON_AND_ORGANIZATION_ASSIGNMENT ( #99, #237, ( #235 ) ) ;
#237 = PERSON_AND_ORGANIZATION_ROLE ( 'design_supplier' ) ;
#238 = ORIENTED_EDGE ( 'NONE', *, *, #230, .F. ) ;
#239 = MECHANICAL_CONTEXT ( 'NONE', #177, 'mechanical' ) ;
#240 = SHAPE_DEFINITION_REPRESENTATION ( #253, #245 ) ;
#241 = DATE_AND_TIME ( #161, #105 ) ;
#242 = CARTESIAN_POINT ( 'NONE',  ( -6.099999999999999645, 0.000000000000000000, 630.0000000000000000 ) ) ;
#243 = CARTESIAN_POINT ( 'NONE',  ( 9.000000000000000000, 1.102182119232617714E-15, 7.000000000000000000 ) ) ;
#244 = DIRECTION ( 'NONE',  ( 0.000000000000000000, 0.000000000000000000, 1.000000000000000000 ) ) ;
#245 = ADVANCED_BREP_SHAPE_REPRESENTATION ( 'e3f2', ( #51, #151 ), #229 ) ;
#246 = COORDINATED_UNIVERSAL_TIME_OFFSET ( 1, 0, .AHEAD. ) ;
#247 = DIRECTION ( 'NONE',  ( 1.000000000000000000, 0.000000000000000000, 0.000000000000000000 ) ) ;
#248 = ADVANCED_FACE ( 'NONE', ( #219, #225 ), #34, .T. ) ;
#249 = CARTESIAN_POINT ( 'NONE',  ( -9.000000000000000000, 0.000000000000000000, 0.000000000000000000 ) ) ;
#250 = EDGE_CURVE ( 'NONE', #207, #153, #214, .T. ) ;
#251 = ORIENTED_EDGE ( 'NONE', *, *, #137, .T. ) ;
#252 = CIRCLE ( 'NONE', #222, 6.099999999999999645 ) ;
#253 = PRODUCT_DEFINITION_SHAPE ( 'NONE', 'NONE',  #203 ) ;
#254 = EDGE_LOOP ( 'NONE', ( #191, #139, #40, #251 ) ) ;
#255 = DIRECTION ( 'NONE',  ( -0.000000000000000000, -0.000000000000000000, -1.000000000000000000 ) ) ;
ENDSEC;
END-ISO-10303-21;
