ISO-10303-21;
HEADER;
FILE_DESCRIPTION (( 'STEP AP203' ),
    '1' );
FILE_NAME ('e549.STEP',
    '2023-02-12T11:16:16',
    ( '' ),
    ( '' ),
    'SwSTEP 2.0',
    'SolidWorks 2019',
    '' );
FILE_SCHEMA (( 'CONFIG_CONTROL_DESIGN' ));
ENDSEC;

DATA;
#1 = DIRECTION ( 'NONE',  ( -0.000000000000000000, -0.000000000000000000, -1.000000000000000000 ) ) ;
#2 = APPLICATION_PROTOCOL_DEFINITION ( 'international standard', 'config_control_design', 1994, #247 ) ;
#3 = PLANE ( 'NONE',  #158 ) ;
#4 = DIRECTION ( 'NONE',  ( 1.000000000000000000, 0.000000000000000000, -0.000000000000000000 ) ) ;
#5 = PERSON ( 'NEURÈENÝ', 'NEURÈENÝ', 'NEURÈENÝ', ('NEURÈENÝ'), ('NEURÈENÝ'), ('NEURÈENÝ') ) ;
#6 = ADVANCED_FACE ( 'NONE', ( #116, #251 ), #189, .T. ) ;
#7 = APPROVAL_ROLE ( '' ) ;
#8 = AXIS2_PLACEMENT_3D ( 'NONE', #194, #211, #232 ) ;
#9 = APPROVAL_STATUS ( 'not_yet_approved' ) ;
#10 = UNCERTAINTY_MEASURE_WITH_UNIT (LENGTH_MEASURE( 1.000000000000000082E-05 ), #156, 'distance_accuracy_value', 'NONE');
#11 = EDGE_CURVE ( 'NONE', #208, #209, #207, .T. ) ;
#12 = PLANE ( 'NONE',  #99 ) ;
#13 = CARTESIAN_POINT ( 'NONE',  ( -8.000000000000000000, 0.000000000000000000, 0.000000000000000000 ) ) ;
#14 = VERTEX_POINT ( 'NONE', #13 ) ;
#15 = VERTEX_POINT ( 'NONE', #230 ) ;
#16 = CARTESIAN_POINT ( 'NONE',  ( 8.000000000000000000, 9.797174393178825657E-16, 0.000000000000000000 ) ) ;
#17 = CARTESIAN_POINT ( 'NONE',  ( 0.000000000000000000, 0.000000000000000000, 0.000000000000000000 ) ) ;
#18 = DIRECTION ( 'NONE',  ( 1.000000000000000000, 0.000000000000000000, 0.000000000000000000 ) ) ;
#19 = CARTESIAN_POINT ( 'NONE',  ( 5.250000000000000888, 6.429395695523605139E-16, 5.000000000000000000 ) ) ;
#20 = AXIS2_PLACEMENT_3D ( 'NONE', #173, #74, #71 ) ;
#21 = CIRCLE ( 'NONE', #95, 8.000000000000000000 ) ;
#22 = DIRECTION ( 'NONE',  ( 1.000000000000000000, 0.000000000000000000, 0.000000000000000000 ) ) ;
#23 = ADVANCED_FACE ( 'NONE', ( #93 ), #12, .T. ) ;
#24 = CALENDAR_DATE ( 2023, 12, 2 ) ;
#25 = ADVANCED_BREP_SHAPE_REPRESENTATION ( 'e549', ( #205, #216 ), #177 ) ;
#26 = COORDINATED_UNIVERSAL_TIME_OFFSET ( 1, 0, .AHEAD. ) ;
#27 = AXIS2_PLACEMENT_3D ( 'NONE', #124, #1, #103 ) ;
#28 = EDGE_CURVE ( 'NONE', #193, #15, #66, .T. ) ;
#29 = COORDINATED_UNIVERSAL_TIME_OFFSET ( 1, 0, .AHEAD. ) ;
#30 = DATE_TIME_ROLE ( 'creation_date' ) ;
#31 = ORIENTED_EDGE ( 'NONE', *, *, #72, .F. ) ;
#32 = DATE_AND_TIME ( #24, #221 ) ;
#33 = ORIENTED_EDGE ( 'NONE', *, *, #28, .F. ) ;
#34 = EDGE_LOOP ( 'NONE', ( #46, #229 ) ) ;
#35 = DIRECTION ( 'NONE',  ( 1.000000000000000000, 0.000000000000000000, 0.000000000000000000 ) ) ;
#36 = CARTESIAN_POINT ( 'NONE',  ( 0.000000000000000000, 0.000000000000000000, 315.0000000000000000 ) ) ;
#37 = DIRECTION ( 'NONE',  ( 1.000000000000000000, 0.000000000000000000, -0.000000000000000000 ) ) ;
#38 = CARTESIAN_POINT ( 'NONE',  ( 0.000000000000000000, 0.000000000000000000, 0.000000000000000000 ) ) ;
#39 =( NAMED_UNIT ( * ) SI_UNIT ( $, .STERADIAN. ) SOLID_ANGLE_UNIT ( ) );
#40 = CYLINDRICAL_SURFACE ( 'NONE', #54, 5.250000000000000888 ) ;
#41 = APPROVAL ( #9, 'NEURÈENÝ' ) ;
#42 = VECTOR ( 'NONE', #138, 1000.000000000000000 ) ;
#43 = APPROVAL_DATE_TIME ( #246, #128 ) ;
#44 = PERSON_AND_ORGANIZATION_ROLE ( 'classification_officer' ) ;
#45 = AXIS2_PLACEMENT_3D ( 'NONE', #252, #210, #236 ) ;
#46 = ORIENTED_EDGE ( 'NONE', *, *, #214, .F. ) ;
#47 = EDGE_CURVE ( 'NONE', #208, #183, #131, .T. ) ;
#48 = AXIS2_PLACEMENT_3D ( 'NONE', #51, #153, #35 ) ;
#49 = AXIS2_PLACEMENT_3D ( 'NONE', #180, #195, #78 ) ;
#50 = DIRECTION ( 'NONE',  ( 0.000000000000000000, 0.000000000000000000, 1.000000000000000000 ) ) ;
#51 = CARTESIAN_POINT ( 'NONE',  ( 0.000000000000000000, 0.000000000000000000, 5.000000000000000000 ) ) ;
#52 = EDGE_CURVE ( 'NONE', #183, #133, #135, .T. ) ;
#53 = ORIENTED_EDGE ( 'NONE', *, *, #88, .T. ) ;
#54 = AXIS2_PLACEMENT_3D ( 'NONE', #161, #105, #240 ) ;
#55 = DIRECTION ( 'NONE',  ( -0.000000000000000000, -0.000000000000000000, -1.000000000000000000 ) ) ;
#56 = CARTESIAN_POINT ( 'NONE',  ( 0.000000000000000000, 0.000000000000000000, 315.0000000000000000 ) ) ;
#57 = CARTESIAN_POINT ( 'NONE',  ( -8.000000000000000000, 0.000000000000000000, 5.000000000000000000 ) ) ;
#58 = DIRECTION ( 'NONE',  ( 1.000000000000000000, 0.000000000000000000, 0.000000000000000000 ) ) ;
#59 = APPROVAL_PERSON_ORGANIZATION ( #184, #41, #7 ) ;
#60 = CC_DESIGN_DATE_AND_TIME_ASSIGNMENT ( #143, #30, ( #218 ) ) ;
#61 = FACE_OUTER_BOUND ( 'NONE', #34, .T. ) ;
#62 = ORGANIZATION ( 'NEURÈENÝ', 'NEURÈENÝ', '' ) ;
#63 = APPROVAL_ROLE ( '' ) ;
#64 = ORIENTED_EDGE ( 'NONE', *, *, #28, .T. ) ;
#65 = CALENDAR_DATE ( 2023, 12, 2 ) ;
#66 = CIRCLE ( 'NONE', #45, 8.000000000000000000 ) ;
#67 = APPROVAL_STATUS ( 'not_yet_approved' ) ;
#68 = ORIENTED_EDGE ( 'NONE', *, *, #206, .T. ) ;
#69 = CC_DESIGN_PERSON_AND_ORGANIZATION_ASSIGNMENT ( #204, #90, ( #198 ) ) ;
#70 = DIRECTION ( 'NONE',  ( 0.000000000000000000, 0.000000000000000000, 1.000000000000000000 ) ) ;
#71 = DIRECTION ( 'NONE',  ( 1.000000000000000000, 0.000000000000000000, 0.000000000000000000 ) ) ;
#72 = EDGE_CURVE ( 'NONE', #15, #193, #224, .T. ) ;
#73 = CARTESIAN_POINT ( 'NONE',  ( -5.250000000000000888, 0.000000000000000000, 315.0000000000000000 ) ) ;
#74 = DIRECTION ( 'NONE',  ( 0.000000000000000000, 0.000000000000000000, 1.000000000000000000 ) ) ;
#75 = EDGE_LOOP ( 'NONE', ( #112, #31, #154, #150 ) ) ;
#76 = AXIS2_PLACEMENT_3D ( 'NONE', #38, #77, #58 ) ;
#77 = DIRECTION ( 'NONE',  ( 0.000000000000000000, 0.000000000000000000, 1.000000000000000000 ) ) ;
#78 = DIRECTION ( 'NONE',  ( 1.000000000000000000, 0.000000000000000000, 0.000000000000000000 ) ) ;
#79 = MECHANICAL_CONTEXT ( 'NONE', #247, 'mechanical' ) ;
#80 = ADVANCED_FACE ( 'NONE', ( #233 ), #117, .T. ) ;
#81 = CYLINDRICAL_SURFACE ( 'NONE', #191, 8.000000000000000000 ) ;
#82 = CARTESIAN_POINT ( 'NONE',  ( -5.250000000000000888, 0.000000000000000000, 315.0000000000000000 ) ) ;
#83 = APPLICATION_PROTOCOL_DEFINITION ( 'international standard', 'config_control_design', 1994, #108 ) ;
#84 = ORIENTED_EDGE ( 'NONE', *, *, #72, .T. ) ;
#85 = CALENDAR_DATE ( 2023, 12, 2 ) ;
#86 = PERSON_AND_ORGANIZATION ( #5, #62 ) ;
#87 = EDGE_LOOP ( 'NONE', ( #84, #64 ) ) ;
#88 = EDGE_CURVE ( 'NONE', #209, #133, #192, .T. ) ;
#89 = VECTOR ( 'NONE', #157, 1000.000000000000000 ) ;
#90 = PERSON_AND_ORGANIZATION_ROLE ( 'design_owner' ) ;
#91 = ORIENTED_EDGE ( 'NONE', *, *, #88, .F. ) ;
#92 = DIRECTION ( 'NONE',  ( -1.000000000000000000, 0.000000000000000000, 0.000000000000000000 ) ) ;
#93 = FACE_OUTER_BOUND ( 'NONE', #149, .T. ) ;
#94 = CLOSED_SHELL ( 'NONE', ( #113, #80, #104, #6, #235, #100, #23 ) ) ;
#95 = AXIS2_PLACEMENT_3D ( 'NONE', #17, #255, #22 ) ;
#96 = VERTEX_POINT ( 'NONE', #16 ) ;
#97 = EDGE_LOOP ( 'NONE', ( #33, #68, #144, #152 ) ) ;
#98 = ORIENTED_EDGE ( 'NONE', *, *, #123, .F. ) ;
#99 = AXIS2_PLACEMENT_3D ( 'NONE', #36, #70, #37 ) ;
#100 = ADVANCED_FACE ( 'NONE', ( #253 ), #40, .T. ) ;
#101 = FACE_OUTER_BOUND ( 'NONE', #75, .T. ) ;
#102 = CC_DESIGN_APPROVAL ( #227, ( #125 ) ) ;
#103 = DIRECTION ( 'NONE',  ( -1.000000000000000000, 0.000000000000000000, 0.000000000000000000 ) ) ;
#104 = ADVANCED_FACE ( 'NONE', ( #101 ), #81, .T. ) ;
#105 = DIRECTION ( 'NONE',  ( -0.000000000000000000, -0.000000000000000000, -1.000000000000000000 ) ) ;
#106 = LOCAL_TIME ( 12, 16, 16.00000000000000000, #26 ) ;
#107 = CARTESIAN_POINT ( 'NONE',  ( 0.000000000000000000, 0.000000000000000000, 0.000000000000000000 ) ) ;
#108 = APPLICATION_CONTEXT ( 'configuration controlled 3d designs of mechanical parts and assemblies' ) ;
#109 = DATE_TIME_ROLE ( 'classification_date' ) ;
#110 = PRODUCT_DEFINITION_FORMATION_WITH_SPECIFIED_SOURCE ( 'LIBOVOLNÝ', '', #198, .NOT_KNOWN. ) ;
#111 = COORDINATED_UNIVERSAL_TIME_OFFSET ( 1, 0, .AHEAD. ) ;
#112 = ORIENTED_EDGE ( 'NONE', *, *, #206, .F. ) ;
#113 = ADVANCED_FACE ( 'NONE', ( #213 ), #121, .T. ) ;
#114 = LOCAL_TIME ( 12, 16, 16.00000000000000000, #29 ) ;
#115 = EDGE_LOOP ( 'NONE', ( #134, #169, #155, #91 ) ) ;
#116 = FACE_BOUND ( 'NONE', #244, .T. ) ;
#117 = CYLINDRICAL_SURFACE ( 'NONE', #167, 8.000000000000000000 ) ;
#118 = EDGE_LOOP ( 'NONE', ( #249, #163, #53, #212 ) ) ;
#119 = DIRECTION ( 'NONE',  ( -0.000000000000000000, -0.000000000000000000, -1.000000000000000000 ) ) ;
#120 = CC_DESIGN_PERSON_AND_ORGANIZATION_ASSIGNMENT ( #86, #130, ( #110 ) ) ;
#121 = CYLINDRICAL_SURFACE ( 'NONE', #27, 5.250000000000000888 ) ;
#122 = DIRECTION ( 'NONE',  ( 0.000000000000000000, 0.000000000000000000, 1.000000000000000000 ) ) ;
#123 = EDGE_CURVE ( 'NONE', #133, #183, #164, .T. ) ;
#124 = CARTESIAN_POINT ( 'NONE',  ( 0.000000000000000000, 0.000000000000000000, 315.0000000000000000 ) ) ;
#125 = SECURITY_CLASSIFICATION ( '', '', #168 ) ;
#126 = PERSON_AND_ORGANIZATION ( #5, #62 ) ;
#127 = APPROVAL_ROLE ( '' ) ;
#128 = APPROVAL ( #67, 'NEURÈENÝ' ) ;
#129 = PERSON_AND_ORGANIZATION_ROLE ( 'creator' ) ;
#130 = PERSON_AND_ORGANIZATION_ROLE ( 'design_supplier' ) ;
#131 = LINE ( 'NONE', #250, #241 ) ;
#132 = DIRECTION ( 'NONE',  ( -0.000000000000000000, -0.000000000000000000, -1.000000000000000000 ) ) ;
#133 = VERTEX_POINT ( 'NONE', #179 ) ;
#134 = ORIENTED_EDGE ( 'NONE', *, *, #11, .F. ) ;
#135 = CIRCLE ( 'NONE', #20, 5.250000000000000888 ) ;
#136 = ORIENTED_EDGE ( 'NONE', *, *, #160, .T. ) ;
#137 = CARTESIAN_POINT ( 'NONE',  ( 5.250000000000000888, 6.429395695523605139E-16, 315.0000000000000000 ) ) ;
#138 = DIRECTION ( 'NONE',  ( -0.000000000000000000, -0.000000000000000000, -1.000000000000000000 ) ) ;
#139 = DIRECTION ( 'NONE',  ( 0.000000000000000000, 0.000000000000000000, 1.000000000000000000 ) ) ;
#140 = COORDINATED_UNIVERSAL_TIME_OFFSET ( 1, 0, .AHEAD. ) ;
#141 = CC_DESIGN_DATE_AND_TIME_ASSIGNMENT ( #146, #109, ( #125 ) ) ;
#142 = LOCAL_TIME ( 12, 16, 16.00000000000000000, #111 ) ;
#143 = DATE_AND_TIME ( #243, #114 ) ;
#144 = ORIENTED_EDGE ( 'NONE', *, *, #238, .T. ) ;
#145 = EDGE_CURVE ( 'NONE', #15, #14, #181, .T. ) ;
#146 = DATE_AND_TIME ( #65, #254 ) ;
#147 = APPROVAL_PERSON_ORGANIZATION ( #248, #227, #127 ) ;
#148 = PERSON_AND_ORGANIZATION ( #5, #62 ) ;
#149 = EDGE_LOOP ( 'NONE', ( #136, #175 ) ) ;
#150 = ORIENTED_EDGE ( 'NONE', *, *, #214, .T. ) ;
#151 = CC_DESIGN_APPROVAL ( #128, ( #110 ) ) ;
#152 = ORIENTED_EDGE ( 'NONE', *, *, #145, .F. ) ;
#153 = DIRECTION ( 'NONE',  ( 0.000000000000000000, 0.000000000000000000, 1.000000000000000000 ) ) ;
#154 = ORIENTED_EDGE ( 'NONE', *, *, #145, .T. ) ;
#155 = ORIENTED_EDGE ( 'NONE', *, *, #52, .T. ) ;
#156 =( LENGTH_UNIT ( ) NAMED_UNIT ( * ) SI_UNIT ( .MILLI., .METRE. ) );
#157 = DIRECTION ( 'NONE',  ( -0.000000000000000000, -0.000000000000000000, -1.000000000000000000 ) ) ;
#158 = AXIS2_PLACEMENT_3D ( 'NONE', #215, #122, #4 ) ;
#159 = CARTESIAN_POINT ( 'NONE',  ( 8.000000000000000000, 9.797174393178825657E-16, 5.000000000000000000 ) ) ;
#160 = EDGE_CURVE ( 'NONE', #209, #208, #172, .T. ) ;
#161 = CARTESIAN_POINT ( 'NONE',  ( 0.000000000000000000, 0.000000000000000000, 315.0000000000000000 ) ) ;
#162 = APPROVAL_DATE_TIME ( #32, #41 ) ;
#163 = ORIENTED_EDGE ( 'NONE', *, *, #160, .F. ) ;
#164 = CIRCLE ( 'NONE', #49, 5.250000000000000888 ) ;
#165 = PRODUCT_RELATED_PRODUCT_CATEGORY ( 'detail', '', ( #198 ) ) ;
#166 = DATE_AND_TIME ( #85, #106 ) ;
#167 = AXIS2_PLACEMENT_3D ( 'NONE', #176, #55, #92 ) ;
#168 = SECURITY_CLASSIFICATION_LEVEL ( 'unclassified' ) ;
#169 = ORIENTED_EDGE ( 'NONE', *, *, #47, .T. ) ;
#170 = CARTESIAN_POINT ( 'NONE',  ( 0.000000000000000000, 0.000000000000000000, 315.0000000000000000 ) ) ;
#171 = ORIENTED_EDGE ( 'NONE', *, *, #52, .F. ) ;
#172 = CIRCLE ( 'NONE', #234, 5.250000000000000888 ) ;
#173 = CARTESIAN_POINT ( 'NONE',  ( 0.000000000000000000, 0.000000000000000000, 5.000000000000000000 ) ) ;
#174 = CC_DESIGN_PERSON_AND_ORGANIZATION_ASSIGNMENT ( #126, #223, ( #218 ) ) ;
#175 = ORIENTED_EDGE ( 'NONE', *, *, #11, .T. ) ;
#176 = CARTESIAN_POINT ( 'NONE',  ( 0.000000000000000000, 0.000000000000000000, 5.000000000000000000 ) ) ;
#177 =( GEOMETRIC_REPRESENTATION_CONTEXT ( 3 ) GLOBAL_UNCERTAINTY_ASSIGNED_CONTEXT ( ( #10 ) ) GLOBAL_UNIT_ASSIGNED_CONTEXT ( ( #156, #217, #39 ) ) REPRESENTATION_CONTEXT ( 'NONE', 'WORKASPACE' ) );
#178 = CARTESIAN_POINT ( 'NONE',  ( 0.000000000000000000, 0.000000000000000000, 5.000000000000000000 ) ) ;
#179 = CARTESIAN_POINT ( 'NONE',  ( -5.250000000000000888, 0.000000000000000000, 5.000000000000000000 ) ) ;
#180 = CARTESIAN_POINT ( 'NONE',  ( 0.000000000000000000, 0.000000000000000000, 5.000000000000000000 ) ) ;
#181 = LINE ( 'NONE', #57, #89 ) ;
#182 = APPROVAL_DATE_TIME ( #166, #227 ) ;
#183 = VERTEX_POINT ( 'NONE', #19 ) ;
#184 = PERSON_AND_ORGANIZATION ( #5, #62 ) ;
#185 = APPROVAL_STATUS ( 'not_yet_approved' ) ;
#186 = CIRCLE ( 'NONE', #76, 8.000000000000000000 ) ;
#187 = CC_DESIGN_PERSON_AND_ORGANIZATION_ASSIGNMENT ( #202, #129, ( #110 ) ) ;
#188 = DIRECTION ( 'NONE',  ( 1.000000000000000000, 0.000000000000000000, 0.000000000000000000 ) ) ;
#189 = PLANE ( 'NONE',  #8 ) ;
#190 = CC_DESIGN_PERSON_AND_ORGANIZATION_ASSIGNMENT ( #148, #44, ( #125 ) ) ;
#191 = AXIS2_PLACEMENT_3D ( 'NONE', #178, #199, #220 ) ;
#192 = LINE ( 'NONE', #73, #196 ) ;
#193 = VERTEX_POINT ( 'NONE', #159 ) ;
#194 = CARTESIAN_POINT ( 'NONE',  ( 0.000000000000000000, 0.000000000000000000, 5.000000000000000000 ) ) ;
#195 = DIRECTION ( 'NONE',  ( 0.000000000000000000, 0.000000000000000000, 1.000000000000000000 ) ) ;
#196 = VECTOR ( 'NONE', #119, 1000.000000000000000 ) ;
#197 = DIRECTION ( 'NONE',  ( 0.000000000000000000, 0.000000000000000000, 1.000000000000000000 ) ) ;
#198 = PRODUCT ( 'e549', 'e549', '', ( #79 ) ) ;
#199 = DIRECTION ( 'NONE',  ( -0.000000000000000000, -0.000000000000000000, -1.000000000000000000 ) ) ;
#200 = AXIS2_PLACEMENT_3D ( 'NONE', #170, #50, #188 ) ;
#201 = LINE ( 'NONE', #237, #42 ) ;
#202 = PERSON_AND_ORGANIZATION ( #5, #62 ) ;
#203 = CC_DESIGN_APPROVAL ( #41, ( #218 ) ) ;
#204 = PERSON_AND_ORGANIZATION ( #5, #62 ) ;
#205 = MANIFOLD_SOLID_BREP ( 'Pøidat vysunutím3', #94 ) ;
#206 = EDGE_CURVE ( 'NONE', #193, #96, #201, .T. ) ;
#207 = CIRCLE ( 'NONE', #200, 5.250000000000000888 ) ;
#208 = VERTEX_POINT ( 'NONE', #137 ) ;
#209 = VERTEX_POINT ( 'NONE', #82 ) ;
#210 = DIRECTION ( 'NONE',  ( 0.000000000000000000, 0.000000000000000000, 1.000000000000000000 ) ) ;
#211 = DIRECTION ( 'NONE',  ( 0.000000000000000000, 0.000000000000000000, 1.000000000000000000 ) ) ;
#212 = ORIENTED_EDGE ( 'NONE', *, *, #123, .T. ) ;
#213 = FACE_OUTER_BOUND ( 'NONE', #115, .T. ) ;
#214 = EDGE_CURVE ( 'NONE', #14, #96, #21, .T. ) ;
#215 = CARTESIAN_POINT ( 'NONE',  ( 0.000000000000000000, 0.000000000000000000, 0.000000000000000000 ) ) ;
#216 = AXIS2_PLACEMENT_3D ( 'NONE', #107, #139, #219 ) ;
#217 =( NAMED_UNIT ( * ) PLANE_ANGLE_UNIT ( ) SI_UNIT ( $, .RADIAN. ) );
#218 = PRODUCT_DEFINITION ( 'NEZNÁMÝ', '', #110, #226 ) ;
#219 = DIRECTION ( 'NONE',  ( 1.000000000000000000, 0.000000000000000000, 0.000000000000000000 ) ) ;
#220 = DIRECTION ( 'NONE',  ( -1.000000000000000000, 0.000000000000000000, 0.000000000000000000 ) ) ;
#221 = LOCAL_TIME ( 12, 16, 16.00000000000000000, #245 ) ;
#222 = CALENDAR_DATE ( 2023, 12, 2 ) ;
#223 = PERSON_AND_ORGANIZATION_ROLE ( 'creator' ) ;
#224 = CIRCLE ( 'NONE', #48, 8.000000000000000000 ) ;
#225 = PERSON_AND_ORGANIZATION ( #5, #62 ) ;
#226 = DESIGN_CONTEXT ( 'detailed design', #108, 'design' ) ;
#227 = APPROVAL ( #185, 'NEURÈENÝ' ) ;
#228 = SHAPE_DEFINITION_REPRESENTATION ( #242, #25 ) ;
#229 = ORIENTED_EDGE ( 'NONE', *, *, #238, .F. ) ;
#230 = CARTESIAN_POINT ( 'NONE',  ( -8.000000000000000000, 0.000000000000000000, 5.000000000000000000 ) ) ;
#231 = APPROVAL_PERSON_ORGANIZATION ( #225, #128, #63 ) ;
#232 = DIRECTION ( 'NONE',  ( 1.000000000000000000, 0.000000000000000000, -0.000000000000000000 ) ) ;
#233 = FACE_OUTER_BOUND ( 'NONE', #97, .T. ) ;
#234 = AXIS2_PLACEMENT_3D ( 'NONE', #56, #197, #18 ) ;
#235 = ADVANCED_FACE ( 'NONE', ( #61 ), #3, .F. ) ;
#236 = DIRECTION ( 'NONE',  ( 1.000000000000000000, 0.000000000000000000, 0.000000000000000000 ) ) ;
#237 = CARTESIAN_POINT ( 'NONE',  ( 8.000000000000000000, 9.797174393178825657E-16, 5.000000000000000000 ) ) ;
#238 = EDGE_CURVE ( 'NONE', #96, #14, #186, .T. ) ;
#239 = CC_DESIGN_SECURITY_CLASSIFICATION ( #125, ( #110 ) ) ;
#240 = DIRECTION ( 'NONE',  ( -1.000000000000000000, 0.000000000000000000, 0.000000000000000000 ) ) ;
#241 = VECTOR ( 'NONE', #132, 1000.000000000000000 ) ;
#242 = PRODUCT_DEFINITION_SHAPE ( 'NONE', 'NONE',  #218 ) ;
#243 = CALENDAR_DATE ( 2023, 12, 2 ) ;
#244 = EDGE_LOOP ( 'NONE', ( #98, #171 ) ) ;
#245 = COORDINATED_UNIVERSAL_TIME_OFFSET ( 1, 0, .AHEAD. ) ;
#246 = DATE_AND_TIME ( #222, #142 ) ;
#247 = APPLICATION_CONTEXT ( 'configuration controlled 3d designs of mechanical parts and assemblies' ) ;
#248 = PERSON_AND_ORGANIZATION ( #5, #62 ) ;
#249 = ORIENTED_EDGE ( 'NONE', *, *, #47, .F. ) ;
#250 = CARTESIAN_POINT ( 'NONE',  ( 5.250000000000000888, 6.429395695523605139E-16, 315.0000000000000000 ) ) ;
#251 = FACE_OUTER_BOUND ( 'NONE', #87, .T. ) ;
#252 = CARTESIAN_POINT ( 'NONE',  ( 0.000000000000000000, 0.000000000000000000, 5.000000000000000000 ) ) ;
#253 = FACE_OUTER_BOUND ( 'NONE', #118, .T. ) ;
#254 = LOCAL_TIME ( 12, 16, 16.00000000000000000, #140 ) ;
#255 = DIRECTION ( 'NONE',  ( 0.000000000000000000, 0.000000000000000000, 1.000000000000000000 ) ) ;
ENDSEC;
END-ISO-10303-21;
