ISO-10303-21;
HEADER;
FILE_DESCRIPTION (( 'STEP AP203' ),
    '1' );
FILE_NAME ('b0f9.STEP',
    '2023-02-12T12:38:07',
    ( '' ),
    ( '' ),
    'SwSTEP 2.0',
    'SolidWorks 2019',
    '' );
FILE_SCHEMA (( 'CONFIG_CONTROL_DESIGN' ));
ENDSEC;

DATA;
#1 = PERSON_AND_ORGANIZATION_ROLE ( 'design_owner' ) ;
#2 = APPROVAL_ROLE ( '' ) ;
#3 = DIRECTION ( 'NONE',  ( 0.000000000000000000, 0.000000000000000000, 1.000000000000000000 ) ) ;
#4 = AXIS2_PLACEMENT_3D ( 'NONE', #110, #31, #109 ) ;
#5 = COORDINATED_UNIVERSAL_TIME_OFFSET ( 1, 0, .AHEAD. ) ;
#6 = ORIENTED_EDGE ( 'NONE', *, *, #165, .T. ) ;
#7 = ORIENTED_EDGE ( 'NONE', *, *, #159, .F. ) ;
#8 = FACE_OUTER_BOUND ( 'NONE', #121, .T. ) ;
#9 = CARTESIAN_POINT ( 'NONE',  ( 0.000000000000000000, 0.000000000000000000, 800.0000000000000000 ) ) ;
#10 = APPROVAL_PERSON_ORGANIZATION ( #101, #124, #2 ) ;
#11 = CARTESIAN_POINT ( 'NONE',  ( -2.000000000000000000, 0.000000000000000000, 800.0000000000000000 ) ) ;
#12 = FACE_OUTER_BOUND ( 'NONE', #163, .T. ) ;
#13 = DIRECTION ( 'NONE',  ( -0.000000000000000000, -0.000000000000000000, -1.000000000000000000 ) ) ;
#14 = EDGE_CURVE ( 'NONE', #164, #206, #168, .T. ) ;
#15 = DATE_AND_TIME ( #157, #57 ) ;
#16 = CC_DESIGN_PERSON_AND_ORGANIZATION_ASSIGNMENT ( #142, #209, ( #94 ) ) ;
#17 = DIRECTION ( 'NONE',  ( 1.000000000000000000, 0.000000000000000000, 0.000000000000000000 ) ) ;
#18 = CALENDAR_DATE ( 2023, 12, 2 ) ;
#19 = CIRCLE ( 'NONE', #240, 2.000000000000000000 ) ;
#20 = APPROVAL_ROLE ( '' ) ;
#21 = CIRCLE ( 'NONE', #50, 2.000000000000000000 ) ;
#22 = SECURITY_CLASSIFICATION_LEVEL ( 'unclassified' ) ;
#23 = ORIENTED_EDGE ( 'NONE', *, *, #14, .T. ) ;
#24 = EDGE_CURVE ( 'NONE', #225, #44, #167, .T. ) ;
#25 = ORIENTED_EDGE ( 'NONE', *, *, #90, .F. ) ;
#26 = ORIENTED_EDGE ( 'NONE', *, *, #60, .F. ) ;
#27 = CC_DESIGN_SECURITY_CLASSIFICATION ( #94, ( #220 ) ) ;
#28 = APPROVAL_ROLE ( '' ) ;
#29 = EDGE_LOOP ( 'NONE', ( #26, #89, #186, #162 ) ) ;
#30 = CARTESIAN_POINT ( 'NONE',  ( -4.000000000000000000, 0.000000000000000000, 3.000000000000000000 ) ) ;
#31 = DIRECTION ( 'NONE',  ( 0.000000000000000000, 0.000000000000000000, 1.000000000000000000 ) ) ;
#32 = AXIS2_PLACEMENT_3D ( 'NONE', #115, #54, #17 ) ;
#33 = CARTESIAN_POINT ( 'NONE',  ( 0.000000000000000000, 0.000000000000000000, 800.0000000000000000 ) ) ;
#34 = DIRECTION ( 'NONE',  ( -1.000000000000000000, 0.000000000000000000, 0.000000000000000000 ) ) ;
#35 = DIRECTION ( 'NONE',  ( 1.000000000000000000, 0.000000000000000000, -0.000000000000000000 ) ) ;
#36 = VECTOR ( 'NONE', #13, 1000.000000000000000 ) ;
#37 = CARTESIAN_POINT ( 'NONE',  ( 0.000000000000000000, 0.000000000000000000, 800.0000000000000000 ) ) ;
#38 = EDGE_CURVE ( 'NONE', #187, #147, #47, .T. ) ;
#39 = DATE_TIME_ROLE ( 'creation_date' ) ;
#40 = PRODUCT_RELATED_PRODUCT_CATEGORY ( 'detail', '', ( #77 ) ) ;
#41 = EDGE_LOOP ( 'NONE', ( #7, #243 ) ) ;
#42 = CALENDAR_DATE ( 2023, 12, 2 ) ;
#43 = ORIENTED_EDGE ( 'NONE', *, *, #38, .T. ) ;
#44 = VERTEX_POINT ( 'NONE', #191 ) ;
#45 = ORIENTED_EDGE ( 'NONE', *, *, #153, .F. ) ;
#46 = ORIENTED_EDGE ( 'NONE', *, *, #55, .F. ) ;
#47 = LINE ( 'NONE', #11, #228 ) ;
#48 = CARTESIAN_POINT ( 'NONE',  ( 4.000000000000000000, 4.898587196589412829E-16, 3.000000000000000000 ) ) ;
#49 = DIRECTION ( 'NONE',  ( 1.000000000000000000, 0.000000000000000000, -0.000000000000000000 ) ) ;
#50 = AXIS2_PLACEMENT_3D ( 'NONE', #130, #154, #213 ) ;
#51 = CARTESIAN_POINT ( 'NONE',  ( 2.000000000000000000, 2.449293598294706414E-16, 800.0000000000000000 ) ) ;
#52 = ADVANCED_FACE ( 'NONE', ( #12 ), #249, .T. ) ;
#53 = CARTESIAN_POINT ( 'NONE',  ( 0.000000000000000000, 0.000000000000000000, 3.000000000000000000 ) ) ;
#54 = DIRECTION ( 'NONE',  ( 0.000000000000000000, 0.000000000000000000, 1.000000000000000000 ) ) ;
#55 = EDGE_CURVE ( 'NONE', #164, #187, #19, .T. ) ;
#56 = CYLINDRICAL_SURFACE ( 'NONE', #239, 2.000000000000000000 ) ;
#57 = LOCAL_TIME ( 13, 38, 7.000000000000000000, #181 ) ;
#58 = ORIENTED_EDGE ( 'NONE', *, *, #252, .T. ) ;
#59 = ORIENTED_EDGE ( 'NONE', *, *, #252, .F. ) ;
#60 = EDGE_CURVE ( 'NONE', #244, #225, #248, .T. ) ;
#61 = CIRCLE ( 'NONE', #145, 4.000000000000000000 ) ;
#62 = CC_DESIGN_APPROVAL ( #124, ( #220 ) ) ;
#63 = ORIENTED_EDGE ( 'NONE', *, *, #153, .T. ) ;
#64 = CC_DESIGN_PERSON_AND_ORGANIZATION_ASSIGNMENT ( #160, #201, ( #182 ) ) ;
#65 = DATE_AND_TIME ( #88, #253 ) ;
#66 = DIRECTION ( 'NONE',  ( -0.000000000000000000, -0.000000000000000000, -1.000000000000000000 ) ) ;
#67 = CC_DESIGN_APPROVAL ( #133, ( #182 ) ) ;
#68 = DIRECTION ( 'NONE',  ( 0.000000000000000000, 0.000000000000000000, 1.000000000000000000 ) ) ;
#69 = CARTESIAN_POINT ( 'NONE',  ( 0.000000000000000000, 0.000000000000000000, 800.0000000000000000 ) ) ;
#70 = ADVANCED_FACE ( 'NONE', ( #8 ), #150, .T. ) ;
#71 = DIRECTION ( 'NONE',  ( 1.000000000000000000, 0.000000000000000000, 0.000000000000000000 ) ) ;
#72 = ADVANCED_FACE ( 'NONE', ( #172 ), #231, .T. ) ;
#73 = PERSON ( 'NEURÈENÝ', 'NEURÈENÝ', 'NEURÈENÝ', ('NEURÈENÝ'), ('NEURÈENÝ'), ('NEURÈENÝ') ) ;
#74 = CIRCLE ( 'NONE', #202, 2.000000000000000000 ) ;
#75 = DIRECTION ( 'NONE',  ( -0.000000000000000000, -0.000000000000000000, -1.000000000000000000 ) ) ;
#76 = CARTESIAN_POINT ( 'NONE',  ( 4.000000000000000000, 4.898587196589412829E-16, 3.000000000000000000 ) ) ;
#77 = PRODUCT ( 'b0f9', 'b0f9', '', ( #217 ) ) ;
#78 = AXIS2_PLACEMENT_3D ( 'NONE', #193, #174, #71 ) ;
#79 = DIRECTION ( 'NONE',  ( -1.000000000000000000, 0.000000000000000000, 0.000000000000000000 ) ) ;
#80 = FACE_OUTER_BOUND ( 'NONE', #144, .T. ) ;
#81 = CC_DESIGN_PERSON_AND_ORGANIZATION_ASSIGNMENT ( #114, #198, ( #220 ) ) ;
#82 = CALENDAR_DATE ( 2023, 12, 2 ) ;
#83 = DIRECTION ( 'NONE',  ( 0.000000000000000000, 0.000000000000000000, 1.000000000000000000 ) ) ;
#84 =( GEOMETRIC_REPRESENTATION_CONTEXT ( 3 ) GLOBAL_UNCERTAINTY_ASSIGNED_CONTEXT ( ( #212 ) ) GLOBAL_UNIT_ASSIGNED_CONTEXT ( ( #155, #199, #117 ) ) REPRESENTATION_CONTEXT ( 'NONE', 'WORKASPACE' ) );
#85 = CC_DESIGN_PERSON_AND_ORGANIZATION_ASSIGNMENT ( #135, #1, ( #77 ) ) ;
#86 = ORIENTED_EDGE ( 'NONE', *, *, #165, .F. ) ;
#87 = AXIS2_PLACEMENT_3D ( 'NONE', #210, #75, #96 ) ;
#88 = CALENDAR_DATE ( 2023, 12, 2 ) ;
#89 = ORIENTED_EDGE ( 'NONE', *, *, #203, .F. ) ;
#90 = EDGE_CURVE ( 'NONE', #146, #44, #149, .T. ) ;
#91 = APPROVAL ( #230, 'NEURÈENÝ' ) ;
#92 = DIRECTION ( 'NONE',  ( 0.000000000000000000, 0.000000000000000000, 1.000000000000000000 ) ) ;
#93 = DIRECTION ( 'NONE',  ( 1.000000000000000000, 0.000000000000000000, 0.000000000000000000 ) ) ;
#94 = SECURITY_CLASSIFICATION ( '', '', #22 ) ;
#95 = CARTESIAN_POINT ( 'NONE',  ( 0.000000000000000000, 0.000000000000000000, 0.000000000000000000 ) ) ;
#96 = DIRECTION ( 'NONE',  ( -1.000000000000000000, 0.000000000000000000, 0.000000000000000000 ) ) ;
#97 = DIRECTION ( 'NONE',  ( -0.000000000000000000, -0.000000000000000000, -1.000000000000000000 ) ) ;
#98 = DIRECTION ( 'NONE',  ( 1.000000000000000000, 0.000000000000000000, 0.000000000000000000 ) ) ;
#99 = DIRECTION ( 'NONE',  ( -0.000000000000000000, -0.000000000000000000, -1.000000000000000000 ) ) ;
#100 = AXIS2_PLACEMENT_3D ( 'NONE', #232, #68, #49 ) ;
#101 = PERSON_AND_ORGANIZATION ( #73, #179 ) ;
#102 = APPROVAL_STATUS ( 'not_yet_approved' ) ;
#103 = APPROVAL_DATE_TIME ( #65, #91 ) ;
#104 = EDGE_LOOP ( 'NONE', ( #59, #86 ) ) ;
#105 = ORIENTED_EDGE ( 'NONE', *, *, #116, .T. ) ;
#106 = APPROVAL_PERSON_ORGANIZATION ( #171, #91, #28 ) ;
#107 = ORIENTED_EDGE ( 'NONE', *, *, #116, .F. ) ;
#108 = DIRECTION ( 'NONE',  ( 0.000000000000000000, 0.000000000000000000, 1.000000000000000000 ) ) ;
#109 = DIRECTION ( 'NONE',  ( 1.000000000000000000, 0.000000000000000000, 0.000000000000000000 ) ) ;
#110 = CARTESIAN_POINT ( 'NONE',  ( 0.000000000000000000, 0.000000000000000000, 3.000000000000000000 ) ) ;
#111 = DIRECTION ( 'NONE',  ( -1.000000000000000000, 0.000000000000000000, 0.000000000000000000 ) ) ;
#112 = CARTESIAN_POINT ( 'NONE',  ( 0.000000000000000000, 0.000000000000000000, 3.000000000000000000 ) ) ;
#113 = VECTOR ( 'NONE', #211, 1000.000000000000000 ) ;
#114 = PERSON_AND_ORGANIZATION ( #73, #179 ) ;
#115 = CARTESIAN_POINT ( 'NONE',  ( 0.000000000000000000, 0.000000000000000000, 0.000000000000000000 ) ) ;
#116 = EDGE_CURVE ( 'NONE', #187, #164, #74, .T. ) ;
#117 =( NAMED_UNIT ( * ) SI_UNIT ( $, .STERADIAN. ) SOLID_ANGLE_UNIT ( ) );
#118 = CIRCLE ( 'NONE', #122, 2.000000000000000000 ) ;
#119 = FACE_OUTER_BOUND ( 'NONE', #41, .T. ) ;
#120 = PERSON_AND_ORGANIZATION_ROLE ( 'design_supplier' ) ;
#121 = EDGE_LOOP ( 'NONE', ( #105, #185 ) ) ;
#122 = AXIS2_PLACEMENT_3D ( 'NONE', #180, #83, #98 ) ;
#123 = ADVANCED_FACE ( 'NONE', ( #194 ), #208, .T. ) ;
#124 = APPROVAL ( #196, 'NEURÈENÝ' ) ;
#125 = ORIENTED_EDGE ( 'NONE', *, *, #203, .T. ) ;
#126 = ORIENTED_EDGE ( 'NONE', *, *, #24, .T. ) ;
#127 = DIRECTION ( 'NONE',  ( 1.000000000000000000, 0.000000000000000000, 0.000000000000000000 ) ) ;
#128 = DIRECTION ( 'NONE',  ( 0.000000000000000000, 0.000000000000000000, 1.000000000000000000 ) ) ;
#129 = CARTESIAN_POINT ( 'NONE',  ( -4.000000000000000000, 0.000000000000000000, 3.000000000000000000 ) ) ;
#130 = CARTESIAN_POINT ( 'NONE',  ( 0.000000000000000000, 0.000000000000000000, 3.000000000000000000 ) ) ;
#131 = DESIGN_CONTEXT ( 'detailed design', #237, 'design' ) ;
#132 = ADVANCED_BREP_SHAPE_REPRESENTATION ( 'b0f9', ( #161, #32 ), #84 ) ;
#133 = APPROVAL ( #102, 'NEURÈENÝ' ) ;
#134 = CARTESIAN_POINT ( 'NONE',  ( -2.000000000000000000, 0.000000000000000000, 3.000000000000000000 ) ) ;
#135 = PERSON_AND_ORGANIZATION ( #73, #179 ) ;
#136 = CC_DESIGN_DATE_AND_TIME_ASSIGNMENT ( #222, #39, ( #182 ) ) ;
#137 = AXIS2_PLACEMENT_3D ( 'NONE', #95, #108, #151 ) ;
#138 = PLANE ( 'NONE',  #204 ) ;
#139 = APPLICATION_PROTOCOL_DEFINITION ( 'international standard', 'config_control_design', 1994, #242 ) ;
#140 = CC_DESIGN_APPROVAL ( #91, ( #94 ) ) ;
#141 = COORDINATED_UNIVERSAL_TIME_OFFSET ( 1, 0, .AHEAD. ) ;
#142 = PERSON_AND_ORGANIZATION ( #73, #179 ) ;
#143 = PRODUCT_DEFINITION_SHAPE ( 'NONE', 'NONE',  #182 ) ;
#144 = EDGE_LOOP ( 'NONE', ( #189, #107, #43, #58 ) ) ;
#145 = AXIS2_PLACEMENT_3D ( 'NONE', #112, #92, #170 ) ;
#146 = VERTEX_POINT ( 'NONE', #30 ) ;
#147 = VERTEX_POINT ( 'NONE', #134 ) ;
#148 = CARTESIAN_POINT ( 'NONE',  ( 2.000000000000000000, 2.449293598294706414E-16, 3.000000000000000000 ) ) ;
#149 = LINE ( 'NONE', #129, #113 ) ;
#150 = PLANE ( 'NONE',  #100 ) ;
#151 = DIRECTION ( 'NONE',  ( 1.000000000000000000, 0.000000000000000000, 0.000000000000000000 ) ) ;
#152 = AXIS2_PLACEMENT_3D ( 'NONE', #9, #234, #34 ) ;
#153 = EDGE_CURVE ( 'NONE', #244, #146, #197, .T. ) ;
#154 = DIRECTION ( 'NONE',  ( 0.000000000000000000, 0.000000000000000000, 1.000000000000000000 ) ) ;
#155 =( LENGTH_UNIT ( ) NAMED_UNIT ( * ) SI_UNIT ( .MILLI., .METRE. ) );
#156 = LOCAL_TIME ( 13, 38, 7.000000000000000000, #177 ) ;
#157 = CALENDAR_DATE ( 2023, 12, 2 ) ;
#158 = DATE_AND_TIME ( #82, #156 ) ;
#159 = EDGE_CURVE ( 'NONE', #44, #225, #200, .T. ) ;
#160 = PERSON_AND_ORGANIZATION ( #73, #179 ) ;
#161 = MANIFOLD_SOLID_BREP ( 'Pøidat vysunutím3', #235 ) ;
#162 = ORIENTED_EDGE ( 'NONE', *, *, #159, .T. ) ;
#163 = EDGE_LOOP ( 'NONE', ( #46, #23, #6, #224 ) ) ;
#164 = VERTEX_POINT ( 'NONE', #51 ) ;
#165 = EDGE_CURVE ( 'NONE', #206, #147, #21, .T. ) ;
#166 = LOCAL_TIME ( 13, 38, 7.000000000000000000, #141 ) ;
#167 = CIRCLE ( 'NONE', #137, 4.000000000000000000 ) ;
#168 = LINE ( 'NONE', #190, #36 ) ;
#169 = ORIENTED_EDGE ( 'NONE', *, *, #60, .T. ) ;
#170 = DIRECTION ( 'NONE',  ( 1.000000000000000000, 0.000000000000000000, 0.000000000000000000 ) ) ;
#171 = PERSON_AND_ORGANIZATION ( #73, #179 ) ;
#172 = FACE_OUTER_BOUND ( 'NONE', #29, .T. ) ;
#173 = DIRECTION ( 'NONE',  ( -0.000000000000000000, -0.000000000000000000, -1.000000000000000000 ) ) ;
#174 = DIRECTION ( 'NONE',  ( 0.000000000000000000, 0.000000000000000000, 1.000000000000000000 ) ) ;
#175 = FACE_BOUND ( 'NONE', #104, .T. ) ;
#176 = ADVANCED_FACE ( 'NONE', ( #175, #254 ), #236, .T. ) ;
#177 = COORDINATED_UNIVERSAL_TIME_OFFSET ( 1, 0, .AHEAD. ) ;
#178 = CARTESIAN_POINT ( 'NONE',  ( 0.000000000000000000, 0.000000000000000000, 0.000000000000000000 ) ) ;
#179 = ORGANIZATION ( 'NEURÈENÝ', 'NEURÈENÝ', '' ) ;
#180 = CARTESIAN_POINT ( 'NONE',  ( 0.000000000000000000, 0.000000000000000000, 3.000000000000000000 ) ) ;
#181 = COORDINATED_UNIVERSAL_TIME_OFFSET ( 1, 0, .AHEAD. ) ;
#182 = PRODUCT_DEFINITION ( 'NEZNÁMÝ', '', #220, #131 ) ;
#183 = DATE_AND_TIME ( #42, #215 ) ;
#184 = DATE_TIME_ROLE ( 'classification_date' ) ;
#185 = ORIENTED_EDGE ( 'NONE', *, *, #55, .T. ) ;
#186 = ORIENTED_EDGE ( 'NONE', *, *, #90, .T. ) ;
#187 = VERTEX_POINT ( 'NONE', #247 ) ;
#188 = AXIS2_PLACEMENT_3D ( 'NONE', #251, #97, #111 ) ;
#189 = ORIENTED_EDGE ( 'NONE', *, *, #14, .F. ) ;
#190 = CARTESIAN_POINT ( 'NONE',  ( 2.000000000000000000, 2.449293598294706414E-16, 800.0000000000000000 ) ) ;
#191 = CARTESIAN_POINT ( 'NONE',  ( -4.000000000000000000, 0.000000000000000000, 0.000000000000000000 ) ) ;
#192 = VECTOR ( 'NONE', #66, 1000.000000000000000 ) ;
#193 = CARTESIAN_POINT ( 'NONE',  ( 0.000000000000000000, 0.000000000000000000, 0.000000000000000000 ) ) ;
#194 = FACE_OUTER_BOUND ( 'NONE', #245, .T. ) ;
#195 = AXIS2_PLACEMENT_3D ( 'NONE', #53, #214, #35 ) ;
#196 = APPROVAL_STATUS ( 'not_yet_approved' ) ;
#197 = CIRCLE ( 'NONE', #4, 4.000000000000000000 ) ;
#198 = PERSON_AND_ORGANIZATION_ROLE ( 'creator' ) ;
#199 =( NAMED_UNIT ( * ) PLANE_ANGLE_UNIT ( ) SI_UNIT ( $, .RADIAN. ) );
#200 = CIRCLE ( 'NONE', #78, 4.000000000000000000 ) ;
#201 = PERSON_AND_ORGANIZATION_ROLE ( 'creator' ) ;
#202 = AXIS2_PLACEMENT_3D ( 'NONE', #33, #128, #127 ) ;
#203 = EDGE_CURVE ( 'NONE', #146, #244, #61, .T. ) ;
#204 = AXIS2_PLACEMENT_3D ( 'NONE', #178, #3, #255 ) ;
#205 = EDGE_LOOP ( 'NONE', ( #125, #63 ) ) ;
#206 = VERTEX_POINT ( 'NONE', #148 ) ;
#207 = COORDINATED_UNIVERSAL_TIME_OFFSET ( 1, 0, .AHEAD. ) ;
#208 = CYLINDRICAL_SURFACE ( 'NONE', #87, 4.000000000000000000 ) ;
#209 = PERSON_AND_ORGANIZATION_ROLE ( 'classification_officer' ) ;
#210 = CARTESIAN_POINT ( 'NONE',  ( 0.000000000000000000, 0.000000000000000000, 3.000000000000000000 ) ) ;
#211 = DIRECTION ( 'NONE',  ( -0.000000000000000000, -0.000000000000000000, -1.000000000000000000 ) ) ;
#212 = UNCERTAINTY_MEASURE_WITH_UNIT (LENGTH_MEASURE( 1.000000000000000082E-05 ), #155, 'distance_accuracy_value', 'NONE');
#213 = DIRECTION ( 'NONE',  ( 1.000000000000000000, 0.000000000000000000, 0.000000000000000000 ) ) ;
#214 = DIRECTION ( 'NONE',  ( 0.000000000000000000, 0.000000000000000000, 1.000000000000000000 ) ) ;
#215 = LOCAL_TIME ( 13, 38, 7.000000000000000000, #207 ) ;
#216 = APPROVAL_DATE_TIME ( #158, #124 ) ;
#217 = MECHANICAL_CONTEXT ( 'NONE', #242, 'mechanical' ) ;
#218 = PERSON_AND_ORGANIZATION ( #73, #179 ) ;
#219 = APPLICATION_PROTOCOL_DEFINITION ( 'international standard', 'config_control_design', 1994, #237 ) ;
#220 = PRODUCT_DEFINITION_FORMATION_WITH_SPECIFIED_SOURCE ( 'LIBOVOLNÝ', '', #77, .NOT_KNOWN. ) ;
#221 = CC_DESIGN_DATE_AND_TIME_ASSIGNMENT ( #183, #184, ( #94 ) ) ;
#222 = DATE_AND_TIME ( #18, #166 ) ;
#223 = ADVANCED_FACE ( 'NONE', ( #119 ), #138, .F. ) ;
#224 = ORIENTED_EDGE ( 'NONE', *, *, #38, .F. ) ;
#225 = VERTEX_POINT ( 'NONE', #238 ) ;
#226 = CC_DESIGN_PERSON_AND_ORGANIZATION_ASSIGNMENT ( #246, #120, ( #220 ) ) ;
#227 = SHAPE_DEFINITION_REPRESENTATION ( #143, #132 ) ;
#228 = VECTOR ( 'NONE', #173, 1000.000000000000000 ) ;
#229 = DIRECTION ( 'NONE',  ( 0.000000000000000000, 0.000000000000000000, 1.000000000000000000 ) ) ;
#230 = APPROVAL_STATUS ( 'not_yet_approved' ) ;
#231 = CYLINDRICAL_SURFACE ( 'NONE', #188, 4.000000000000000000 ) ;
#232 = CARTESIAN_POINT ( 'NONE',  ( 0.000000000000000000, 0.000000000000000000, 800.0000000000000000 ) ) ;
#233 = APPROVAL_PERSON_ORGANIZATION ( #218, #133, #20 ) ;
#234 = DIRECTION ( 'NONE',  ( -0.000000000000000000, -0.000000000000000000, -1.000000000000000000 ) ) ;
#235 = CLOSED_SHELL ( 'NONE', ( #52, #123, #72, #176, #223, #250, #70 ) ) ;
#236 = PLANE ( 'NONE',  #195 ) ;
#237 = APPLICATION_CONTEXT ( 'configuration controlled 3d designs of mechanical parts and assemblies' ) ;
#238 = CARTESIAN_POINT ( 'NONE',  ( 4.000000000000000000, 4.898587196589412829E-16, 0.000000000000000000 ) ) ;
#239 = AXIS2_PLACEMENT_3D ( 'NONE', #37, #99, #79 ) ;
#240 = AXIS2_PLACEMENT_3D ( 'NONE', #69, #229, #93 ) ;
#241 = APPROVAL_DATE_TIME ( #15, #133 ) ;
#242 = APPLICATION_CONTEXT ( 'configuration controlled 3d designs of mechanical parts and assemblies' ) ;
#243 = ORIENTED_EDGE ( 'NONE', *, *, #24, .F. ) ;
#244 = VERTEX_POINT ( 'NONE', #76 ) ;
#245 = EDGE_LOOP ( 'NONE', ( #45, #169, #126, #25 ) ) ;
#246 = PERSON_AND_ORGANIZATION ( #73, #179 ) ;
#247 = CARTESIAN_POINT ( 'NONE',  ( -2.000000000000000000, 0.000000000000000000, 800.0000000000000000 ) ) ;
#248 = LINE ( 'NONE', #48, #192 ) ;
#249 = CYLINDRICAL_SURFACE ( 'NONE', #152, 2.000000000000000000 ) ;
#250 = ADVANCED_FACE ( 'NONE', ( #80 ), #56, .T. ) ;
#251 = CARTESIAN_POINT ( 'NONE',  ( 0.000000000000000000, 0.000000000000000000, 3.000000000000000000 ) ) ;
#252 = EDGE_CURVE ( 'NONE', #147, #206, #118, .T. ) ;
#253 = LOCAL_TIME ( 13, 38, 7.000000000000000000, #5 ) ;
#254 = FACE_OUTER_BOUND ( 'NONE', #205, .T. ) ;
#255 = DIRECTION ( 'NONE',  ( 1.000000000000000000, 0.000000000000000000, -0.000000000000000000 ) ) ;
ENDSEC;
END-ISO-10303-21;
