ISO-10303-21;
HEADER;
FILE_DESCRIPTION (( 'STEP AP203' ),
    '1' );
FILE_NAME ('b760.STEP',
    '2023-02-12T12:40:21',
    ( '' ),
    ( '' ),
    'SwSTEP 2.0',
    'SolidWorks 2019',
    '' );
FILE_SCHEMA (( 'CONFIG_CONTROL_DESIGN' ));
ENDSEC;

DATA;
#1 = VERTEX_POINT ( 'NONE', #172 ) ;
#2 = ORIENTED_EDGE ( 'NONE', *, *, #91, .T. ) ;
#3 = CARTESIAN_POINT ( 'NONE',  ( 0.000000000000000000, 0.000000000000000000, 3.000000000000000000 ) ) ;
#4 = ORIENTED_EDGE ( 'NONE', *, *, #161, .F. ) ;
#5 = CYLINDRICAL_SURFACE ( 'NONE', #127, 1.750000000000000000 ) ;
#6 = AXIS2_PLACEMENT_3D ( 'NONE', #160, #33, #103 ) ;
#7 = PERSON_AND_ORGANIZATION ( #211, #77 ) ;
#8 = DIRECTION ( 'NONE',  ( 1.000000000000000000, 0.000000000000000000, -0.000000000000000000 ) ) ;
#9 = CARTESIAN_POINT ( 'NONE',  ( 0.000000000000000000, 0.000000000000000000, 3.000000000000000000 ) ) ;
#10 = CALENDAR_DATE ( 2023, 12, 2 ) ;
#11 = DIRECTION ( 'NONE',  ( 1.000000000000000000, 0.000000000000000000, 0.000000000000000000 ) ) ;
#12 = PRODUCT_RELATED_PRODUCT_CATEGORY ( 'detail', '', ( #34 ) ) ;
#13 = APPROVAL_ROLE ( '' ) ;
#14 = ADVANCED_FACE ( 'NONE', ( #62 ), #196, .T. ) ;
#15 = CC_DESIGN_SECURITY_CLASSIFICATION ( #94, ( #150 ) ) ;
#16 = DIRECTION ( 'NONE',  ( 1.000000000000000000, 0.000000000000000000, 0.000000000000000000 ) ) ;
#17 = EDGE_CURVE ( 'NONE', #79, #1, #52, .T. ) ;
#18 = APPROVAL_ROLE ( '' ) ;
#19 = AXIS2_PLACEMENT_3D ( 'NONE', #151, #170, #254 ) ;
#20 = DATE_TIME_ROLE ( 'creation_date' ) ;
#21 = COORDINATED_UNIVERSAL_TIME_OFFSET ( 1, 0, .AHEAD. ) ;
#22 = AXIS2_PLACEMENT_3D ( 'NONE', #84, #176, #101 ) ;
#23 = ORIENTED_EDGE ( 'NONE', *, *, #17, .F. ) ;
#24 = ORIENTED_EDGE ( 'NONE', *, *, #47, .T. ) ;
#25 = DIRECTION ( 'NONE',  ( -0.000000000000000000, -0.000000000000000000, -1.000000000000000000 ) ) ;
#26 = ORIENTED_EDGE ( 'NONE', *, *, #173, .F. ) ;
#27 = APPLICATION_CONTEXT ( 'configuration controlled 3d designs of mechanical parts and assemblies' ) ;
#28 = LINE ( 'NONE', #51, #206 ) ;
#29 = DIRECTION ( 'NONE',  ( 1.000000000000000000, 0.000000000000000000, -0.000000000000000000 ) ) ;
#30 = LOCAL_TIME ( 13, 40, 21.00000000000000000, #21 ) ;
#31 = DIRECTION ( 'NONE',  ( -0.000000000000000000, -0.000000000000000000, -1.000000000000000000 ) ) ;
#32 = COORDINATED_UNIVERSAL_TIME_OFFSET ( 1, 0, .AHEAD. ) ;
#33 = DIRECTION ( 'NONE',  ( 0.000000000000000000, 0.000000000000000000, 1.000000000000000000 ) ) ;
#34 = PRODUCT ( 'b760', 'b760', '', ( #147 ) ) ;
#35 = DIRECTION ( 'NONE',  ( -1.000000000000000000, 0.000000000000000000, 0.000000000000000000 ) ) ;
#36 = CIRCLE ( 'NONE', #93, 3.500000000000000444 ) ;
#37 = CIRCLE ( 'NONE', #126, 3.500000000000000444 ) ;
#38 = CARTESIAN_POINT ( 'NONE',  ( 0.000000000000000000, 0.000000000000000000, 3.000000000000000000 ) ) ;
#39 = DATE_AND_TIME ( #130, #75 ) ;
#40 = AXIS2_PLACEMENT_3D ( 'NONE', #122, #181, #29 ) ;
#41 = CALENDAR_DATE ( 2023, 12, 2 ) ;
#42 = COORDINATED_UNIVERSAL_TIME_OFFSET ( 1, 0, .AHEAD. ) ;
#43 = DIRECTION ( 'NONE',  ( 0.000000000000000000, 0.000000000000000000, 1.000000000000000000 ) ) ;
#44 = AXIS2_PLACEMENT_3D ( 'NONE', #85, #48, #140 ) ;
#45 = CC_DESIGN_APPROVAL ( #57, ( #94 ) ) ;
#46 = EDGE_LOOP ( 'NONE', ( #180, #117 ) ) ;
#47 = EDGE_CURVE ( 'NONE', #1, #243, #36, .T. ) ;
#48 = DIRECTION ( 'NONE',  ( -0.000000000000000000, -0.000000000000000000, -1.000000000000000000 ) ) ;
#49 = ORIENTED_EDGE ( 'NONE', *, *, #236, .T. ) ;
#50 = DIRECTION ( 'NONE',  ( 0.000000000000000000, 0.000000000000000000, 1.000000000000000000 ) ) ;
#51 = CARTESIAN_POINT ( 'NONE',  ( 1.750000000000000000, 2.143131898507868297E-16, 800.0000000000000000 ) ) ;
#52 = LINE ( 'NONE', #137, #186 ) ;
#53 = VECTOR ( 'NONE', #198, 1000.000000000000000 ) ;
#54 = DESIGN_CONTEXT ( 'detailed design', #27, 'design' ) ;
#55 = SECURITY_CLASSIFICATION_LEVEL ( 'unclassified' ) ;
#56 = CARTESIAN_POINT ( 'NONE',  ( 0.000000000000000000, 0.000000000000000000, 800.0000000000000000 ) ) ;
#57 = APPROVAL ( #202, 'NEURÈENÝ' ) ;
#58 = PERSON_AND_ORGANIZATION_ROLE ( 'design_owner' ) ;
#59 = SHAPE_DEFINITION_REPRESENTATION ( #204, #64 ) ;
#60 = PERSON_AND_ORGANIZATION_ROLE ( 'creator' ) ;
#61 = DIRECTION ( 'NONE',  ( -0.000000000000000000, -0.000000000000000000, -1.000000000000000000 ) ) ;
#62 = FACE_OUTER_BOUND ( 'NONE', #65, .T. ) ;
#63 = VERTEX_POINT ( 'NONE', #155 ) ;
#64 = ADVANCED_BREP_SHAPE_REPRESENTATION ( 'b760', ( #246, #209 ), #184 ) ;
#65 = EDGE_LOOP ( 'NONE', ( #23, #98, #2, #152 ) ) ;
#66 = EDGE_LOOP ( 'NONE', ( #80, #197, #136, #218 ) ) ;
#67 = CYLINDRICAL_SURFACE ( 'NONE', #44, 3.500000000000000444 ) ;
#68 = CARTESIAN_POINT ( 'NONE',  ( 0.000000000000000000, 0.000000000000000000, 800.0000000000000000 ) ) ;
#69 = ADVANCED_FACE ( 'NONE', ( #178 ), #67, .T. ) ;
#70 = CALENDAR_DATE ( 2023, 12, 2 ) ;
#71 = PLANE ( 'NONE',  #40 ) ;
#72 = ADVANCED_FACE ( 'NONE', ( #223 ), #219, .T. ) ;
#73 = PERSON_AND_ORGANIZATION ( #211, #77 ) ;
#74 = CIRCLE ( 'NONE', #135, 1.750000000000000000 ) ;
#75 = LOCAL_TIME ( 13, 40, 21.00000000000000000, #42 ) ;
#76 = APPLICATION_PROTOCOL_DEFINITION ( 'international standard', 'config_control_design', 1994, #164 ) ;
#77 = ORGANIZATION ( 'NEURÈENÝ', 'NEURÈENÝ', '' ) ;
#78 = ORIENTED_EDGE ( 'NONE', *, *, #91, .F. ) ;
#79 = VERTEX_POINT ( 'NONE', #217 ) ;
#80 = ORIENTED_EDGE ( 'NONE', *, *, #208, .F. ) ;
#81 = DIRECTION ( 'NONE',  ( -0.000000000000000000, -0.000000000000000000, -1.000000000000000000 ) ) ;
#82 = CIRCLE ( 'NONE', #6, 3.500000000000000444 ) ;
#83 = VERTEX_POINT ( 'NONE', #220 ) ;
#84 = CARTESIAN_POINT ( 'NONE',  ( 0.000000000000000000, 0.000000000000000000, 3.000000000000000000 ) ) ;
#85 = CARTESIAN_POINT ( 'NONE',  ( 0.000000000000000000, 0.000000000000000000, 3.000000000000000000 ) ) ;
#86 = DIRECTION ( 'NONE',  ( 1.000000000000000000, 0.000000000000000000, 0.000000000000000000 ) ) ;
#87 = APPROVAL ( #188, 'NEURÈENÝ' ) ;
#88 = DIRECTION ( 'NONE',  ( 1.000000000000000000, 0.000000000000000000, 0.000000000000000000 ) ) ;
#89 = PERSON_AND_ORGANIZATION ( #211, #77 ) ;
#90 = CIRCLE ( 'NONE', #240, 1.750000000000000000 ) ;
#91 = EDGE_CURVE ( 'NONE', #63, #243, #159, .T. ) ;
#92 = DATE_AND_TIME ( #41, #30 ) ;
#93 = AXIS2_PLACEMENT_3D ( 'NONE', #134, #242, #121 ) ;
#94 = SECURITY_CLASSIFICATION ( '', '', #55 ) ;
#95 = ORIENTED_EDGE ( 'NONE', *, *, #47, .F. ) ;
#96 = ORIENTED_EDGE ( 'NONE', *, *, #114, .F. ) ;
#97 = CARTESIAN_POINT ( 'NONE',  ( 0.000000000000000000, 0.000000000000000000, 800.0000000000000000 ) ) ;
#98 = ORIENTED_EDGE ( 'NONE', *, *, #168, .F. ) ;
#99 = FACE_OUTER_BOUND ( 'NONE', #239, .T. ) ;
#100 = EDGE_CURVE ( 'NONE', #174, #83, #28, .T. ) ;
#101 = DIRECTION ( 'NONE',  ( 1.000000000000000000, 0.000000000000000000, 0.000000000000000000 ) ) ;
#102 = DIRECTION ( 'NONE',  ( -1.000000000000000000, 0.000000000000000000, 0.000000000000000000 ) ) ;
#103 = DIRECTION ( 'NONE',  ( 1.000000000000000000, 0.000000000000000000, 0.000000000000000000 ) ) ;
#104 = DIRECTION ( 'NONE',  ( 0.000000000000000000, 0.000000000000000000, 1.000000000000000000 ) ) ;
#105 = ADVANCED_FACE ( 'NONE', ( #99 ), #71, .F. ) ;
#106 = CARTESIAN_POINT ( 'NONE',  ( -1.750000000000000000, 0.000000000000000000, 800.0000000000000000 ) ) ;
#107 = CC_DESIGN_APPROVAL ( #187, ( #150 ) ) ;
#108 = EDGE_LOOP ( 'NONE', ( #4, #154 ) ) ;
#109 =( NAMED_UNIT ( * ) PLANE_ANGLE_UNIT ( ) SI_UNIT ( $, .RADIAN. ) );
#110 = CC_DESIGN_PERSON_AND_ORGANIZATION_ASSIGNMENT ( #7, #123, ( #94 ) ) ;
#111 = APPROVAL_DATE_TIME ( #39, #87 ) ;
#112 = DIRECTION ( 'NONE',  ( 0.000000000000000000, 0.000000000000000000, 1.000000000000000000 ) ) ;
#113 = PERSON_AND_ORGANIZATION ( #211, #77 ) ;
#114 = EDGE_CURVE ( 'NONE', #79, #63, #214, .T. ) ;
#115 = FACE_BOUND ( 'NONE', #108, .T. ) ;
#116 = ORIENTED_EDGE ( 'NONE', *, *, #17, .T. ) ;
#117 = ORIENTED_EDGE ( 'NONE', *, *, #114, .T. ) ;
#118 = CARTESIAN_POINT ( 'NONE',  ( -3.500000000000000444, 0.000000000000000000, 3.000000000000000000 ) ) ;
#119 = ORIENTED_EDGE ( 'NONE', *, *, #185, .T. ) ;
#120 = LOCAL_TIME ( 13, 40, 21.00000000000000000, #32 ) ;
#121 = DIRECTION ( 'NONE',  ( 1.000000000000000000, 0.000000000000000000, 0.000000000000000000 ) ) ;
#122 = CARTESIAN_POINT ( 'NONE',  ( 0.000000000000000000, 0.000000000000000000, 0.000000000000000000 ) ) ;
#123 = PERSON_AND_ORGANIZATION_ROLE ( 'classification_officer' ) ;
#124 = CC_DESIGN_PERSON_AND_ORGANIZATION_ASSIGNMENT ( #231, #60, ( #150 ) ) ;
#125 = DATE_TIME_ROLE ( 'classification_date' ) ;
#126 = AXIS2_PLACEMENT_3D ( 'NONE', #245, #182, #11 ) ;
#127 = AXIS2_PLACEMENT_3D ( 'NONE', #68, #31, #102 ) ;
#128 = CC_DESIGN_PERSON_AND_ORGANIZATION_ASSIGNMENT ( #131, #227, ( #150 ) ) ;
#129 = FACE_OUTER_BOUND ( 'NONE', #46, .T. ) ;
#130 = CALENDAR_DATE ( 2023, 12, 2 ) ;
#131 = PERSON_AND_ORGANIZATION ( #211, #77 ) ;
#132 = APPROVAL_PERSON_ORGANIZATION ( #113, #187, #232 ) ;
#133 = EDGE_LOOP ( 'NONE', ( #119, #195 ) ) ;
#134 = CARTESIAN_POINT ( 'NONE',  ( 0.000000000000000000, 0.000000000000000000, 0.000000000000000000 ) ) ;
#135 = AXIS2_PLACEMENT_3D ( 'NONE', #248, #143, #230 ) ;
#136 = ORIENTED_EDGE ( 'NONE', *, *, #250, .T. ) ;
#137 = CARTESIAN_POINT ( 'NONE',  ( 3.500000000000000444, 4.286263797015737088E-16, 3.000000000000000000 ) ) ;
#138 = COORDINATED_UNIVERSAL_TIME_OFFSET ( 1, 0, .AHEAD. ) ;
#139 = AXIS2_PLACEMENT_3D ( 'NONE', #3, #25, #203 ) ;
#140 = DIRECTION ( 'NONE',  ( -1.000000000000000000, 0.000000000000000000, 0.000000000000000000 ) ) ;
#141 = CC_DESIGN_DATE_AND_TIME_ASSIGNMENT ( #215, #20, ( #205 ) ) ;
#142 = FACE_OUTER_BOUND ( 'NONE', #66, .T. ) ;
#143 = DIRECTION ( 'NONE',  ( 0.000000000000000000, 0.000000000000000000, 1.000000000000000000 ) ) ;
#144 = AXIS2_PLACEMENT_3D ( 'NONE', #97, #50, #8 ) ;
#145 = APPROVAL_DATE_TIME ( #92, #187 ) ;
#146 = DATE_AND_TIME ( #10, #120 ) ;
#147 = MECHANICAL_CONTEXT ( 'NONE', #164, 'mechanical' ) ;
#148 = CARTESIAN_POINT ( 'NONE',  ( 0.000000000000000000, 0.000000000000000000, 0.000000000000000000 ) ) ;
#149 = CALENDAR_DATE ( 2023, 12, 2 ) ;
#150 = PRODUCT_DEFINITION_FORMATION_WITH_SPECIFIED_SOURCE ( 'LIBOVOLNÝ', '', #34, .NOT_KNOWN. ) ;
#151 = CARTESIAN_POINT ( 'NONE',  ( 0.000000000000000000, 0.000000000000000000, 3.000000000000000000 ) ) ;
#152 = ORIENTED_EDGE ( 'NONE', *, *, #173, .T. ) ;
#153 = ADVANCED_FACE ( 'NONE', ( #244 ), #5, .T. ) ;
#154 = ORIENTED_EDGE ( 'NONE', *, *, #250, .F. ) ;
#155 = CARTESIAN_POINT ( 'NONE',  ( -3.500000000000000444, 0.000000000000000000, 3.000000000000000000 ) ) ;
#156 = AXIS2_PLACEMENT_3D ( 'NONE', #38, #112, #193 ) ;
#157 = EDGE_LOOP ( 'NONE', ( #241, #221, #49, #175 ) ) ;
#158 = DIRECTION ( 'NONE',  ( 0.000000000000000000, 0.000000000000000000, 1.000000000000000000 ) ) ;
#159 = LINE ( 'NONE', #118, #53 ) ;
#160 = CARTESIAN_POINT ( 'NONE',  ( 0.000000000000000000, 0.000000000000000000, 3.000000000000000000 ) ) ;
#161 = EDGE_CURVE ( 'NONE', #216, #83, #90, .T. ) ;
#162 = CARTESIAN_POINT ( 'NONE',  ( 0.000000000000000000, 0.000000000000000000, 800.0000000000000000 ) ) ;
#163 = APPROVAL_PERSON_ORGANIZATION ( #73, #57, #13 ) ;
#164 = APPLICATION_CONTEXT ( 'configuration controlled 3d designs of mechanical parts and assemblies' ) ;
#165 = PERSON_AND_ORGANIZATION_ROLE ( 'creator' ) ;
#166 = CC_DESIGN_PERSON_AND_ORGANIZATION_ASSIGNMENT ( #189, #165, ( #205 ) ) ;
#167 = COORDINATED_UNIVERSAL_TIME_OFFSET ( 1, 0, .AHEAD. ) ;
#168 = EDGE_CURVE ( 'NONE', #63, #79, #82, .T. ) ;
#169 = APPLICATION_PROTOCOL_DEFINITION ( 'international standard', 'config_control_design', 1994, #27 ) ;
#170 = DIRECTION ( 'NONE',  ( 0.000000000000000000, 0.000000000000000000, 1.000000000000000000 ) ) ;
#171 = CIRCLE ( 'NONE', #156, 1.750000000000000000 ) ;
#172 = CARTESIAN_POINT ( 'NONE',  ( 3.500000000000000444, 4.286263797015737088E-16, 0.000000000000000000 ) ) ;
#173 = EDGE_CURVE ( 'NONE', #243, #1, #37, .T. ) ;
#174 = VERTEX_POINT ( 'NONE', #238 ) ;
#175 = ORIENTED_EDGE ( 'NONE', *, *, #161, .T. ) ;
#176 = DIRECTION ( 'NONE',  ( 0.000000000000000000, 0.000000000000000000, 1.000000000000000000 ) ) ;
#177 = AXIS2_PLACEMENT_3D ( 'NONE', #56, #207, #35 ) ;
#178 = FACE_OUTER_BOUND ( 'NONE', #237, .T. ) ;
#179 = CC_DESIGN_PERSON_AND_ORGANIZATION_ASSIGNMENT ( #249, #58, ( #34 ) ) ;
#180 = ORIENTED_EDGE ( 'NONE', *, *, #168, .T. ) ;
#181 = DIRECTION ( 'NONE',  ( 0.000000000000000000, 0.000000000000000000, 1.000000000000000000 ) ) ;
#182 = DIRECTION ( 'NONE',  ( 0.000000000000000000, 0.000000000000000000, 1.000000000000000000 ) ) ;
#183 = UNCERTAINTY_MEASURE_WITH_UNIT (LENGTH_MEASURE( 1.000000000000000082E-05 ), #212, 'distance_accuracy_value', 'NONE');
#184 =( GEOMETRIC_REPRESENTATION_CONTEXT ( 3 ) GLOBAL_UNCERTAINTY_ASSIGNED_CONTEXT ( ( #183 ) ) GLOBAL_UNIT_ASSIGNED_CONTEXT ( ( #212, #109, #213 ) ) REPRESENTATION_CONTEXT ( 'NONE', 'WORKASPACE' ) );
#185 = EDGE_CURVE ( 'NONE', #201, #174, #222, .T. ) ;
#186 = VECTOR ( 'NONE', #81, 1000.000000000000000 ) ;
#187 = APPROVAL ( #194, 'NEURÈENÝ' ) ;
#188 = APPROVAL_STATUS ( 'not_yet_approved' ) ;
#189 = PERSON_AND_ORGANIZATION ( #211, #77 ) ;
#190 = APPROVAL_DATE_TIME ( #146, #57 ) ;
#191 = CC_DESIGN_APPROVAL ( #87, ( #205 ) ) ;
#192 = ADVANCED_FACE ( 'NONE', ( #142 ), #226, .T. ) ;
#193 = DIRECTION ( 'NONE',  ( 1.000000000000000000, 0.000000000000000000, 0.000000000000000000 ) ) ;
#194 = APPROVAL_STATUS ( 'not_yet_approved' ) ;
#195 = ORIENTED_EDGE ( 'NONE', *, *, #208, .T. ) ;
#196 = CYLINDRICAL_SURFACE ( 'NONE', #139, 3.500000000000000444 ) ;
#197 = ORIENTED_EDGE ( 'NONE', *, *, #100, .T. ) ;
#198 = DIRECTION ( 'NONE',  ( -0.000000000000000000, -0.000000000000000000, -1.000000000000000000 ) ) ;
#199 = DIRECTION ( 'NONE',  ( -0.000000000000000000, -0.000000000000000000, -1.000000000000000000 ) ) ;
#200 = LOCAL_TIME ( 13, 40, 21.00000000000000000, #138 ) ;
#201 = VERTEX_POINT ( 'NONE', #106 ) ;
#202 = APPROVAL_STATUS ( 'not_yet_approved' ) ;
#203 = DIRECTION ( 'NONE',  ( -1.000000000000000000, 0.000000000000000000, 0.000000000000000000 ) ) ;
#204 = PRODUCT_DEFINITION_SHAPE ( 'NONE', 'NONE',  #205 ) ;
#205 = PRODUCT_DEFINITION ( 'NEZNÁMÝ', '', #150, #54 ) ;
#206 = VECTOR ( 'NONE', #199, 1000.000000000000000 ) ;
#207 = DIRECTION ( 'NONE',  ( -0.000000000000000000, -0.000000000000000000, -1.000000000000000000 ) ) ;
#208 = EDGE_CURVE ( 'NONE', #174, #201, #74, .T. ) ;
#209 = AXIS2_PLACEMENT_3D ( 'NONE', #148, #43, #88 ) ;
#210 = CARTESIAN_POINT ( 'NONE',  ( -1.750000000000000000, 0.000000000000000000, 800.0000000000000000 ) ) ;
#211 = PERSON ( 'NEURÈENÝ', 'NEURÈENÝ', 'NEURÈENÝ', ('NEURÈENÝ'), ('NEURÈENÝ'), ('NEURÈENÝ') ) ;
#212 =( LENGTH_UNIT ( ) NAMED_UNIT ( * ) SI_UNIT ( .MILLI., .METRE. ) );
#213 =( NAMED_UNIT ( * ) SI_UNIT ( $, .STERADIAN. ) SOLID_ANGLE_UNIT ( ) );
#214 = CIRCLE ( 'NONE', #22, 3.500000000000000444 ) ;
#215 = DATE_AND_TIME ( #149, #228 ) ;
#216 = VERTEX_POINT ( 'NONE', #253 ) ;
#217 = CARTESIAN_POINT ( 'NONE',  ( 3.500000000000000444, 4.286263797015737088E-16, 3.000000000000000000 ) ) ;
#218 = ORIENTED_EDGE ( 'NONE', *, *, #236, .F. ) ;
#219 = PLANE ( 'NONE',  #144 ) ;
#220 = CARTESIAN_POINT ( 'NONE',  ( 1.750000000000000000, 2.143131898507868297E-16, 3.000000000000000000 ) ) ;
#221 = ORIENTED_EDGE ( 'NONE', *, *, #185, .F. ) ;
#222 = CIRCLE ( 'NONE', #251, 1.750000000000000000 ) ;
#223 = FACE_OUTER_BOUND ( 'NONE', #133, .T. ) ;
#224 = CC_DESIGN_DATE_AND_TIME_ASSIGNMENT ( #225, #125, ( #94 ) ) ;
#225 = DATE_AND_TIME ( #70, #200 ) ;
#226 = CYLINDRICAL_SURFACE ( 'NONE', #177, 1.750000000000000000 ) ;
#227 = PERSON_AND_ORGANIZATION_ROLE ( 'design_supplier' ) ;
#228 = LOCAL_TIME ( 13, 40, 21.00000000000000000, #167 ) ;
#229 = ADVANCED_FACE ( 'NONE', ( #115, #129 ), #252, .T. ) ;
#230 = DIRECTION ( 'NONE',  ( 1.000000000000000000, 0.000000000000000000, 0.000000000000000000 ) ) ;
#231 = PERSON_AND_ORGANIZATION ( #211, #77 ) ;
#232 = APPROVAL_ROLE ( '' ) ;
#233 = CLOSED_SHELL ( 'NONE', ( #192, #69, #14, #229, #105, #153, #72 ) ) ;
#234 = APPROVAL_PERSON_ORGANIZATION ( #89, #87, #18 ) ;
#235 = LINE ( 'NONE', #210, #247 ) ;
#236 = EDGE_CURVE ( 'NONE', #201, #216, #235, .T. ) ;
#237 = EDGE_LOOP ( 'NONE', ( #96, #116, #24, #78 ) ) ;
#238 = CARTESIAN_POINT ( 'NONE',  ( 1.750000000000000000, 2.143131898507868297E-16, 800.0000000000000000 ) ) ;
#239 = EDGE_LOOP ( 'NONE', ( #26, #95 ) ) ;
#240 = AXIS2_PLACEMENT_3D ( 'NONE', #9, #158, #86 ) ;
#241 = ORIENTED_EDGE ( 'NONE', *, *, #100, .F. ) ;
#242 = DIRECTION ( 'NONE',  ( 0.000000000000000000, 0.000000000000000000, 1.000000000000000000 ) ) ;
#243 = VERTEX_POINT ( 'NONE', #255 ) ;
#244 = FACE_OUTER_BOUND ( 'NONE', #157, .T. ) ;
#245 = CARTESIAN_POINT ( 'NONE',  ( 0.000000000000000000, 0.000000000000000000, 0.000000000000000000 ) ) ;
#246 = MANIFOLD_SOLID_BREP ( 'Pøidat vysunutím3', #233 ) ;
#247 = VECTOR ( 'NONE', #61, 1000.000000000000000 ) ;
#248 = CARTESIAN_POINT ( 'NONE',  ( 0.000000000000000000, 0.000000000000000000, 800.0000000000000000 ) ) ;
#249 = PERSON_AND_ORGANIZATION ( #211, #77 ) ;
#250 = EDGE_CURVE ( 'NONE', #83, #216, #171, .T. ) ;
#251 = AXIS2_PLACEMENT_3D ( 'NONE', #162, #104, #16 ) ;
#252 = PLANE ( 'NONE',  #19 ) ;
#253 = CARTESIAN_POINT ( 'NONE',  ( -1.750000000000000000, 0.000000000000000000, 3.000000000000000000 ) ) ;
#254 = DIRECTION ( 'NONE',  ( 1.000000000000000000, 0.000000000000000000, -0.000000000000000000 ) ) ;
#255 = CARTESIAN_POINT ( 'NONE',  ( -3.500000000000000444, 0.000000000000000000, 0.000000000000000000 ) ) ;
ENDSEC;
END-ISO-10303-21;
