ISO-10303-21;
HEADER;
FILE_DESCRIPTION (( 'STEP AP203' ),
    '1' );
FILE_NAME ('9d8a.STEP',
    '2023-02-12T10:33:35',
    ( '' ),
    ( '' ),
    'SwSTEP 2.0',
    'SolidWorks 2019',
    '' );
FILE_SCHEMA (( 'CONFIG_CONTROL_DESIGN' ));
ENDSEC;

DATA;
#1 = EDGE_CURVE ( 'NONE', #197, #23, #71, .T. ) ;
#2 = AXIS2_PLACEMENT_3D ( 'NONE', #224, #29, #50 ) ;
#3 = LOCAL_TIME ( 11, 33, 35.00000000000000000, #225 ) ;
#4 = EDGE_LOOP ( 'NONE', ( #66, #195, #159, #223 ) ) ;
#5 = CARTESIAN_POINT ( 'NONE',  ( 0.000000000000000000, 0.000000000000000000, 100.0000000000000000 ) ) ;
#6 = CIRCLE ( 'NONE', #103, 10.00000000000000000 ) ;
#7 = LINE ( 'NONE', #118, #175 ) ;
#8 =( NAMED_UNIT ( * ) PLANE_ANGLE_UNIT ( ) SI_UNIT ( $, .RADIAN. ) );
#9 = APPROVAL ( #201, 'NEURÈENÝ' ) ;
#10 = ORIENTED_EDGE ( 'NONE', *, *, #25, .T. ) ;
#11 = DATE_TIME_ROLE ( 'classification_date' ) ;
#12 = CC_DESIGN_APPROVAL ( #109, ( #209 ) ) ;
#13 = APPLICATION_CONTEXT ( 'configuration controlled 3d designs of mechanical parts and assemblies' ) ;
#14 = ADVANCED_FACE ( 'NONE', ( #75 ), #208, .T. ) ;
#15 = DESIGN_CONTEXT ( 'detailed design', #95, 'design' ) ;
#16 = PERSON ( 'NEURÈENÝ', 'NEURÈENÝ', 'NEURÈENÝ', ('NEURÈENÝ'), ('NEURÈENÝ'), ('NEURÈENÝ') ) ;
#17 = CARTESIAN_POINT ( 'NONE',  ( 0.000000000000000000, 0.000000000000000000, 8.000000000000000000 ) ) ;
#18 = EDGE_CURVE ( 'NONE', #161, #27, #111, .T. ) ;
#19 = CARTESIAN_POINT ( 'NONE',  ( 0.000000000000000000, 0.000000000000000000, 100.0000000000000000 ) ) ;
#20 = AXIS2_PLACEMENT_3D ( 'NONE', #5, #237, #215 ) ;
#21 = CARTESIAN_POINT ( 'NONE',  ( -10.00000000000000000, 0.000000000000000000, 8.000000000000000000 ) ) ;
#22 = DIRECTION ( 'NONE',  ( 1.000000000000000000, 0.000000000000000000, 0.000000000000000000 ) ) ;
#23 = VERTEX_POINT ( 'NONE', #131 ) ;
#24 = DIRECTION ( 'NONE',  ( 0.000000000000000000, 0.000000000000000000, 1.000000000000000000 ) ) ;
#25 = EDGE_CURVE ( 'NONE', #148, #220, #70, .T. ) ;
#26 = DIRECTION ( 'NONE',  ( 0.000000000000000000, 0.000000000000000000, 1.000000000000000000 ) ) ;
#27 = VERTEX_POINT ( 'NONE', #140 ) ;
#28 = DIRECTION ( 'NONE',  ( 1.000000000000000000, 0.000000000000000000, 0.000000000000000000 ) ) ;
#29 = DIRECTION ( 'NONE',  ( 0.000000000000000000, 0.000000000000000000, 1.000000000000000000 ) ) ;
#30 = DATE_AND_TIME ( #185, #119 ) ;
#31 = PERSON_AND_ORGANIZATION ( #16, #47 ) ;
#32 = EDGE_CURVE ( 'NONE', #27, #161, #210, .T. ) ;
#33 = DIRECTION ( 'NONE',  ( 1.000000000000000000, 0.000000000000000000, 0.000000000000000000 ) ) ;
#34 = FACE_OUTER_BOUND ( 'NONE', #82, .T. ) ;
#35 = CC_DESIGN_DATE_AND_TIME_ASSIGNMENT ( #90, #11, ( #79 ) ) ;
#36 = DIRECTION ( 'NONE',  ( -1.000000000000000000, 0.000000000000000000, 0.000000000000000000 ) ) ;
#37 = CIRCLE ( 'NONE', #167, 13.00000000000000178 ) ;
#38 = FACE_OUTER_BOUND ( 'NONE', #4, .T. ) ;
#39 = DIRECTION ( 'NONE',  ( 0.000000000000000000, 0.000000000000000000, 1.000000000000000000 ) ) ;
#40 = EDGE_LOOP ( 'NONE', ( #217, #242 ) ) ;
#41 = LOCAL_TIME ( 11, 33, 35.00000000000000000, #188 ) ;
#42 = FACE_OUTER_BOUND ( 'NONE', #40, .T. ) ;
#43 = ORIENTED_EDGE ( 'NONE', *, *, #227, .F. ) ;
#44 = PLANE ( 'NONE',  #186 ) ;
#45 =( LENGTH_UNIT ( ) NAMED_UNIT ( * ) SI_UNIT ( .MILLI., .METRE. ) );
#46 = ORIENTED_EDGE ( 'NONE', *, *, #18, .F. ) ;
#47 = ORGANIZATION ( 'NEURÈENÝ', 'NEURÈENÝ', '' ) ;
#48 = SHAPE_DEFINITION_REPRESENTATION ( #94, #255 ) ;
#49 = CALENDAR_DATE ( 2023, 12, 2 ) ;
#50 = DIRECTION ( 'NONE',  ( 1.000000000000000000, 0.000000000000000000, 0.000000000000000000 ) ) ;
#51 = APPROVAL_DATE_TIME ( #170, #109 ) ;
#52 = CIRCLE ( 'NONE', #192, 10.00000000000000000 ) ;
#53 = CALENDAR_DATE ( 2023, 12, 2 ) ;
#54 = ADVANCED_FACE ( 'NONE', ( #254 ), #252, .T. ) ;
#55 = AXIS2_PLACEMENT_3D ( 'NONE', #172, #233, #33 ) ;
#56 = DIRECTION ( 'NONE',  ( -0.000000000000000000, -0.000000000000000000, -1.000000000000000000 ) ) ;
#57 = CC_DESIGN_PERSON_AND_ORGANIZATION_ASSIGNMENT ( #244, #73, ( #79 ) ) ;
#58 = DIRECTION ( 'NONE',  ( -1.000000000000000000, 0.000000000000000000, 0.000000000000000000 ) ) ;
#59 = ORIENTED_EDGE ( 'NONE', *, *, #216, .F. ) ;
#60 = CARTESIAN_POINT ( 'NONE',  ( -10.00000000000000000, 0.000000000000000000, 100.0000000000000000 ) ) ;
#61 = CIRCLE ( 'NONE', #228, 13.00000000000000178 ) ;
#62 = DIRECTION ( 'NONE',  ( -0.000000000000000000, -0.000000000000000000, -1.000000000000000000 ) ) ;
#63 = ADVANCED_FACE ( 'NONE', ( #34 ), #191, .T. ) ;
#64 = ORIENTED_EDGE ( 'NONE', *, *, #216, .T. ) ;
#65 = FACE_BOUND ( 'NONE', #235, .T. ) ;
#66 = ORIENTED_EDGE ( 'NONE', *, *, #141, .F. ) ;
#67 = ORIENTED_EDGE ( 'NONE', *, *, #253, .F. ) ;
#68 = AXIS2_PLACEMENT_3D ( 'NONE', #212, #39, #28 ) ;
#69 = APPROVAL_STATUS ( 'not_yet_approved' ) ;
#70 = CIRCLE ( 'NONE', #189, 13.00000000000000178 ) ;
#71 = CIRCLE ( 'NONE', #98, 13.00000000000000178 ) ;
#72 = PERSON_AND_ORGANIZATION ( #16, #47 ) ;
#73 = PERSON_AND_ORGANIZATION_ROLE ( 'classification_officer' ) ;
#74 = CC_DESIGN_PERSON_AND_ORGANIZATION_ASSIGNMENT ( #72, #248, ( #246 ) ) ;
#75 = FACE_OUTER_BOUND ( 'NONE', #199, .T. ) ;
#76 = CARTESIAN_POINT ( 'NONE',  ( 0.000000000000000000, 0.000000000000000000, 0.000000000000000000 ) ) ;
#77 = VECTOR ( 'NONE', #85, 1000.000000000000000 ) ;
#78 = PRODUCT_RELATED_PRODUCT_CATEGORY ( 'detail', '', ( #246 ) ) ;
#79 = SECURITY_CLASSIFICATION ( '', '', #171 ) ;
#80 = PLANE ( 'NONE',  #97 ) ;
#81 = ORIENTED_EDGE ( 'NONE', *, *, #243, .F. ) ;
#82 = EDGE_LOOP ( 'NONE', ( #105, #163, #10, #128 ) ) ;
#83 = DIRECTION ( 'NONE',  ( 0.000000000000000000, 0.000000000000000000, 1.000000000000000000 ) ) ;
#84 = ORIENTED_EDGE ( 'NONE', *, *, #18, .T. ) ;
#85 = DIRECTION ( 'NONE',  ( -0.000000000000000000, -0.000000000000000000, -1.000000000000000000 ) ) ;
#86 = PERSON_AND_ORGANIZATION ( #16, #47 ) ;
#87 = DIRECTION ( 'NONE',  ( -1.000000000000000000, 0.000000000000000000, 0.000000000000000000 ) ) ;
#88 = PERSON_AND_ORGANIZATION ( #16, #47 ) ;
#89 = DIRECTION ( 'NONE',  ( 0.000000000000000000, 0.000000000000000000, 1.000000000000000000 ) ) ;
#90 = DATE_AND_TIME ( #112, #222 ) ;
#91 = APPROVAL ( #69, 'NEURÈENÝ' ) ;
#92 = EDGE_LOOP ( 'NONE', ( #67, #182, #213, #64 ) ) ;
#93 = DATE_AND_TIME ( #127, #3 ) ;
#94 = PRODUCT_DEFINITION_SHAPE ( 'NONE', 'NONE',  #132 ) ;
#95 = APPLICATION_CONTEXT ( 'configuration controlled 3d designs of mechanical parts and assemblies' ) ;
#96 = CARTESIAN_POINT ( 'NONE',  ( -13.00000000000000178, 0.000000000000000000, 8.000000000000000000 ) ) ;
#97 = AXIS2_PLACEMENT_3D ( 'NONE', #179, #194, #196 ) ;
#98 = AXIS2_PLACEMENT_3D ( 'NONE', #135, #89, #207 ) ;
#99 = CARTESIAN_POINT ( 'NONE',  ( 13.00000000000000178, 1.592040838891559293E-15, 8.000000000000000000 ) ) ;
#100 = EDGE_CURVE ( 'NONE', #23, #220, #211, .T. ) ;
#101 = ORIENTED_EDGE ( 'NONE', *, *, #141, .T. ) ;
#102 = CARTESIAN_POINT ( 'NONE',  ( 13.00000000000000178, 1.592040838891559293E-15, 8.000000000000000000 ) ) ;
#103 = AXIS2_PLACEMENT_3D ( 'NONE', #178, #83, #200 ) ;
#104 = DIRECTION ( 'NONE',  ( 1.000000000000000000, 0.000000000000000000, 0.000000000000000000 ) ) ;
#105 = ORIENTED_EDGE ( 'NONE', *, *, #1, .F. ) ;
#106 = CARTESIAN_POINT ( 'NONE',  ( 0.000000000000000000, 0.000000000000000000, 100.0000000000000000 ) ) ;
#107 = MECHANICAL_CONTEXT ( 'NONE', #13, 'mechanical' ) ;
#108 = PERSON_AND_ORGANIZATION_ROLE ( 'creator' ) ;
#109 = APPROVAL ( #226, 'NEURÈENÝ' ) ;
#110 = DATE_TIME_ROLE ( 'creation_date' ) ;
#111 = CIRCLE ( 'NONE', #2, 10.00000000000000000 ) ;
#112 = CALENDAR_DATE ( 2023, 12, 2 ) ;
#113 = CARTESIAN_POINT ( 'NONE',  ( 0.000000000000000000, 0.000000000000000000, 8.000000000000000000 ) ) ;
#114 = LINE ( 'NONE', #60, #77 ) ;
#115 =( GEOMETRIC_REPRESENTATION_CONTEXT ( 3 ) GLOBAL_UNCERTAINTY_ASSIGNED_CONTEXT ( ( #187 ) ) GLOBAL_UNIT_ASSIGNED_CONTEXT ( ( #45, #8, #124 ) ) REPRESENTATION_CONTEXT ( 'NONE', 'WORKASPACE' ) );
#116 = CC_DESIGN_PERSON_AND_ORGANIZATION_ASSIGNMENT ( #221, #247, ( #209 ) ) ;
#117 = DIRECTION ( 'NONE',  ( 0.000000000000000000, 0.000000000000000000, 1.000000000000000000 ) ) ;
#118 = CARTESIAN_POINT ( 'NONE',  ( 10.00000000000000000, 1.224646799147353256E-15, 100.0000000000000000 ) ) ;
#119 = LOCAL_TIME ( 11, 33, 35.00000000000000000, #130 ) ;
#120 = ORIENTED_EDGE ( 'NONE', *, *, #137, .F. ) ;
#121 = CARTESIAN_POINT ( 'NONE',  ( 10.00000000000000000, 1.224646799147353256E-15, 8.000000000000000000 ) ) ;
#122 = CARTESIAN_POINT ( 'NONE',  ( 0.000000000000000000, 0.000000000000000000, 8.000000000000000000 ) ) ;
#123 = ORIENTED_EDGE ( 'NONE', *, *, #25, .F. ) ;
#124 =( NAMED_UNIT ( * ) SI_UNIT ( $, .STERADIAN. ) SOLID_ANGLE_UNIT ( ) );
#125 = VECTOR ( 'NONE', #234, 1000.000000000000000 ) ;
#126 = ADVANCED_FACE ( 'NONE', ( #38 ), #232, .T. ) ;
#127 = CALENDAR_DATE ( 2023, 12, 2 ) ;
#128 = ORIENTED_EDGE ( 'NONE', *, *, #100, .F. ) ;
#129 = APPLICATION_PROTOCOL_DEFINITION ( 'international standard', 'config_control_design', 1994, #95 ) ;
#130 = COORDINATED_UNIVERSAL_TIME_OFFSET ( 1, 0, .AHEAD. ) ;
#131 = CARTESIAN_POINT ( 'NONE',  ( -13.00000000000000178, 0.000000000000000000, 8.000000000000000000 ) ) ;
#132 = PRODUCT_DEFINITION ( 'NEZNÁMÝ', '', #209, #15 ) ;
#133 = CC_DESIGN_SECURITY_CLASSIFICATION ( #79, ( #209 ) ) ;
#134 = PERSON_AND_ORGANIZATION ( #16, #47 ) ;
#135 = CARTESIAN_POINT ( 'NONE',  ( 0.000000000000000000, 0.000000000000000000, 8.000000000000000000 ) ) ;
#136 = AXIS2_PLACEMENT_3D ( 'NONE', #106, #183, #87 ) ;
#137 = EDGE_CURVE ( 'NONE', #27, #143, #114, .T. ) ;
#138 = CC_DESIGN_APPROVAL ( #91, ( #79 ) ) ;
#139 = DIRECTION ( 'NONE',  ( 0.000000000000000000, 0.000000000000000000, 1.000000000000000000 ) ) ;
#140 = CARTESIAN_POINT ( 'NONE',  ( -10.00000000000000000, 0.000000000000000000, 100.0000000000000000 ) ) ;
#141 = EDGE_CURVE ( 'NONE', #161, #150, #7, .T. ) ;
#142 = DIRECTION ( 'NONE',  ( -1.000000000000000000, 0.000000000000000000, 0.000000000000000000 ) ) ;
#143 = VERTEX_POINT ( 'NONE', #21 ) ;
#144 = FACE_OUTER_BOUND ( 'NONE', #165, .T. ) ;
#145 = CARTESIAN_POINT ( 'NONE',  ( 0.000000000000000000, 0.000000000000000000, 0.000000000000000000 ) ) ;
#146 = EDGE_LOOP ( 'NONE', ( #59, #123 ) ) ;
#147 = CARTESIAN_POINT ( 'NONE',  ( 0.000000000000000000, 0.000000000000000000, 8.000000000000000000 ) ) ;
#148 = VERTEX_POINT ( 'NONE', #164 ) ;
#149 = AXIS2_PLACEMENT_3D ( 'NONE', #19, #156, #36 ) ;
#150 = VERTEX_POINT ( 'NONE', #121 ) ;
#151 = APPROVAL_ROLE ( '' ) ;
#152 = CLOSED_SHELL ( 'NONE', ( #14, #63, #54, #173, #180, #126, #177 ) ) ;
#153 = APPROVAL_DATE_TIME ( #30, #9 ) ;
#154 = APPROVAL_DATE_TIME ( #93, #91 ) ;
#155 = CC_DESIGN_PERSON_AND_ORGANIZATION_ASSIGNMENT ( #31, #203, ( #132 ) ) ;
#156 = DIRECTION ( 'NONE',  ( -0.000000000000000000, -0.000000000000000000, -1.000000000000000000 ) ) ;
#157 = DIRECTION ( 'NONE',  ( -0.000000000000000000, -0.000000000000000000, -1.000000000000000000 ) ) ;
#158 = DIRECTION ( 'NONE',  ( 1.000000000000000000, 0.000000000000000000, 0.000000000000000000 ) ) ;
#159 = ORIENTED_EDGE ( 'NONE', *, *, #137, .T. ) ;
#160 = CC_DESIGN_PERSON_AND_ORGANIZATION_ASSIGNMENT ( #134, #108, ( #209 ) ) ;
#161 = VERTEX_POINT ( 'NONE', #181 ) ;
#162 = LINE ( 'NONE', #102, #125 ) ;
#163 = ORIENTED_EDGE ( 'NONE', *, *, #253, .T. ) ;
#164 = CARTESIAN_POINT ( 'NONE',  ( 13.00000000000000178, 1.592040838891559293E-15, 0.000000000000000000 ) ) ;
#165 = EDGE_LOOP ( 'NONE', ( #239, #84 ) ) ;
#166 = APPROVAL_ROLE ( '' ) ;
#167 = AXIS2_PLACEMENT_3D ( 'NONE', #176, #24, #104 ) ;
#168 = DATE_AND_TIME ( #49, #41 ) ;
#169 = AXIS2_PLACEMENT_3D ( 'NONE', #113, #230, #58 ) ;
#170 = DATE_AND_TIME ( #53, #251 ) ;
#171 = SECURITY_CLASSIFICATION_LEVEL ( 'unclassified' ) ;
#172 = CARTESIAN_POINT ( 'NONE',  ( 0.000000000000000000, 0.000000000000000000, 100.0000000000000000 ) ) ;
#173 = ADVANCED_FACE ( 'NONE', ( #65, #42 ), #44, .T. ) ;
#174 = APPROVAL_PERSON_ORGANIZATION ( #88, #109, #250 ) ;
#175 = VECTOR ( 'NONE', #62, 1000.000000000000000 ) ;
#176 = CARTESIAN_POINT ( 'NONE',  ( 0.000000000000000000, 0.000000000000000000, 8.000000000000000000 ) ) ;
#177 = ADVANCED_FACE ( 'NONE', ( #144 ), #240, .T. ) ;
#178 = CARTESIAN_POINT ( 'NONE',  ( 0.000000000000000000, 0.000000000000000000, 8.000000000000000000 ) ) ;
#179 = CARTESIAN_POINT ( 'NONE',  ( 0.000000000000000000, 0.000000000000000000, 0.000000000000000000 ) ) ;
#180 = ADVANCED_FACE ( 'NONE', ( #219 ), #80, .F. ) ;
#181 = CARTESIAN_POINT ( 'NONE',  ( 10.00000000000000000, 1.224646799147353256E-15, 100.0000000000000000 ) ) ;
#182 = ORIENTED_EDGE ( 'NONE', *, *, #236, .F. ) ;
#183 = DIRECTION ( 'NONE',  ( -0.000000000000000000, -0.000000000000000000, -1.000000000000000000 ) ) ;
#184 = AXIS2_PLACEMENT_3D ( 'NONE', #17, #56, #142 ) ;
#185 = CALENDAR_DATE ( 2023, 12, 2 ) ;
#186 = AXIS2_PLACEMENT_3D ( 'NONE', #147, #117, #218 ) ;
#187 = UNCERTAINTY_MEASURE_WITH_UNIT (LENGTH_MEASURE( 1.000000000000000082E-05 ), #45, 'distance_accuracy_value', 'NONE');
#188 = COORDINATED_UNIVERSAL_TIME_OFFSET ( 1, 0, .AHEAD. ) ;
#189 = AXIS2_PLACEMENT_3D ( 'NONE', #76, #139, #231 ) ;
#190 = COORDINATED_UNIVERSAL_TIME_OFFSET ( 1, 0, .AHEAD. ) ;
#191 = CYLINDRICAL_SURFACE ( 'NONE', #184, 13.00000000000000178 ) ;
#192 = AXIS2_PLACEMENT_3D ( 'NONE', #122, #26, #158 ) ;
#193 = CARTESIAN_POINT ( 'NONE',  ( -13.00000000000000178, 0.000000000000000000, 0.000000000000000000 ) ) ;
#194 = DIRECTION ( 'NONE',  ( 0.000000000000000000, 0.000000000000000000, 1.000000000000000000 ) ) ;
#195 = ORIENTED_EDGE ( 'NONE', *, *, #32, .F. ) ;
#196 = DIRECTION ( 'NONE',  ( 1.000000000000000000, 0.000000000000000000, -0.000000000000000000 ) ) ;
#197 = VERTEX_POINT ( 'NONE', #99 ) ;
#198 = DIRECTION ( 'NONE',  ( 0.000000000000000000, 0.000000000000000000, 1.000000000000000000 ) ) ;
#199 = EDGE_LOOP ( 'NONE', ( #46, #101, #202, #120 ) ) ;
#200 = DIRECTION ( 'NONE',  ( 1.000000000000000000, 0.000000000000000000, 0.000000000000000000 ) ) ;
#201 = APPROVAL_STATUS ( 'not_yet_approved' ) ;
#202 = ORIENTED_EDGE ( 'NONE', *, *, #227, .T. ) ;
#203 = PERSON_AND_ORGANIZATION_ROLE ( 'creator' ) ;
#204 = COORDINATED_UNIVERSAL_TIME_OFFSET ( 1, 0, .AHEAD. ) ;
#205 = CC_DESIGN_DATE_AND_TIME_ASSIGNMENT ( #168, #110, ( #132 ) ) ;
#206 = PERSON_AND_ORGANIZATION ( #16, #47 ) ;
#207 = DIRECTION ( 'NONE',  ( 1.000000000000000000, 0.000000000000000000, 0.000000000000000000 ) ) ;
#208 = CYLINDRICAL_SURFACE ( 'NONE', #136, 10.00000000000000000 ) ;
#209 = PRODUCT_DEFINITION_FORMATION_WITH_SPECIFIED_SOURCE ( 'LIBOVOLNÝ', '', #246, .NOT_KNOWN. ) ;
#210 = CIRCLE ( 'NONE', #55, 10.00000000000000000 ) ;
#211 = LINE ( 'NONE', #96, #229 ) ;
#212 = CARTESIAN_POINT ( 'NONE',  ( 0.000000000000000000, 0.000000000000000000, 0.000000000000000000 ) ) ;
#213 = ORIENTED_EDGE ( 'NONE', *, *, #100, .T. ) ;
#214 = CC_DESIGN_APPROVAL ( #9, ( #132 ) ) ;
#215 = DIRECTION ( 'NONE',  ( 1.000000000000000000, 0.000000000000000000, -0.000000000000000000 ) ) ;
#216 = EDGE_CURVE ( 'NONE', #220, #148, #61, .T. ) ;
#217 = ORIENTED_EDGE ( 'NONE', *, *, #236, .T. ) ;
#218 = DIRECTION ( 'NONE',  ( 1.000000000000000000, 0.000000000000000000, -0.000000000000000000 ) ) ;
#219 = FACE_OUTER_BOUND ( 'NONE', #146, .T. ) ;
#220 = VERTEX_POINT ( 'NONE', #193 ) ;
#221 = PERSON_AND_ORGANIZATION ( #16, #47 ) ;
#222 = LOCAL_TIME ( 11, 33, 35.00000000000000000, #204 ) ;
#223 = ORIENTED_EDGE ( 'NONE', *, *, #243, .T. ) ;
#224 = CARTESIAN_POINT ( 'NONE',  ( 0.000000000000000000, 0.000000000000000000, 100.0000000000000000 ) ) ;
#225 = COORDINATED_UNIVERSAL_TIME_OFFSET ( 1, 0, .AHEAD. ) ;
#226 = APPROVAL_STATUS ( 'not_yet_approved' ) ;
#227 = EDGE_CURVE ( 'NONE', #150, #143, #6, .T. ) ;
#228 = AXIS2_PLACEMENT_3D ( 'NONE', #145, #198, #22 ) ;
#229 = VECTOR ( 'NONE', #157, 1000.000000000000000 ) ;
#230 = DIRECTION ( 'NONE',  ( -0.000000000000000000, -0.000000000000000000, -1.000000000000000000 ) ) ;
#231 = DIRECTION ( 'NONE',  ( 1.000000000000000000, 0.000000000000000000, 0.000000000000000000 ) ) ;
#232 = CYLINDRICAL_SURFACE ( 'NONE', #149, 10.00000000000000000 ) ;
#233 = DIRECTION ( 'NONE',  ( 0.000000000000000000, 0.000000000000000000, 1.000000000000000000 ) ) ;
#234 = DIRECTION ( 'NONE',  ( -0.000000000000000000, -0.000000000000000000, -1.000000000000000000 ) ) ;
#235 = EDGE_LOOP ( 'NONE', ( #81, #43 ) ) ;
#236 = EDGE_CURVE ( 'NONE', #23, #197, #37, .T. ) ;
#237 = DIRECTION ( 'NONE',  ( 0.000000000000000000, 0.000000000000000000, 1.000000000000000000 ) ) ;
#238 = APPROVAL_PERSON_ORGANIZATION ( #86, #91, #151 ) ;
#239 = ORIENTED_EDGE ( 'NONE', *, *, #32, .T. ) ;
#240 = PLANE ( 'NONE',  #20 ) ;
#241 = APPLICATION_PROTOCOL_DEFINITION ( 'international standard', 'config_control_design', 1994, #13 ) ;
#242 = ORIENTED_EDGE ( 'NONE', *, *, #1, .T. ) ;
#243 = EDGE_CURVE ( 'NONE', #143, #150, #52, .T. ) ;
#244 = PERSON_AND_ORGANIZATION ( #16, #47 ) ;
#245 = APPROVAL_PERSON_ORGANIZATION ( #206, #9, #166 ) ;
#246 = PRODUCT ( '9d8a', '9d8a', '', ( #107 ) ) ;
#247 = PERSON_AND_ORGANIZATION_ROLE ( 'design_supplier' ) ;
#248 = PERSON_AND_ORGANIZATION_ROLE ( 'design_owner' ) ;
#249 = MANIFOLD_SOLID_BREP ( 'Pøidat vysunutím3', #152 ) ;
#250 = APPROVAL_ROLE ( '' ) ;
#251 = LOCAL_TIME ( 11, 33, 35.00000000000000000, #190 ) ;
#252 = CYLINDRICAL_SURFACE ( 'NONE', #169, 13.00000000000000178 ) ;
#253 = EDGE_CURVE ( 'NONE', #197, #148, #162, .T. ) ;
#254 = FACE_OUTER_BOUND ( 'NONE', #92, .T. ) ;
#255 = ADVANCED_BREP_SHAPE_REPRESENTATION ( '9d8a', ( #249, #68 ), #115 ) ;
ENDSEC;
END-ISO-10303-21;
