ISO-10303-21;
HEADER;
FILE_DESCRIPTION (( 'STEP AP203' ),
    '1' );
FILE_NAME ('189f.STEP',
    '2023-02-12T12:17:10',
    ( '' ),
    ( '' ),
    'SwSTEP 2.0',
    'SolidWorks 2019',
    '' );
FILE_SCHEMA (( 'CONFIG_CONTROL_DESIGN' ));
ENDSEC;

DATA;
#1 = DIRECTION ( 'NONE',  ( 0.000000000000000000, 0.000000000000000000, 1.000000000000000000 ) ) ;
#2 = VECTOR ( 'NONE', #147, 1000.000000000000000 ) ;
#3 = LINE ( 'NONE', #14, #16 ) ;
#4 = FACE_OUTER_BOUND ( 'NONE', #187, .T. ) ;
#5 = CARTESIAN_POINT ( 'NONE',  ( 0.000000000000000000, 0.000000000000000000, 5.000000000000000000 ) ) ;
#6 = APPLICATION_PROTOCOL_DEFINITION ( 'international standard', 'config_control_design', 1994, #101 ) ;
#7 = DIRECTION ( 'NONE',  ( -0.000000000000000000, -0.000000000000000000, -1.000000000000000000 ) ) ;
#8 = CIRCLE ( 'NONE', #106, 3.100000000000000089 ) ;
#9 =( NAMED_UNIT ( * ) SI_UNIT ( $, .STERADIAN. ) SOLID_ANGLE_UNIT ( ) );
#10 = LOCAL_TIME ( 13, 17, 10.00000000000000000, #215 ) ;
#11 = PRODUCT ( '189f', '189f', '', ( #195 ) ) ;
#12 = APPROVAL_PERSON_ORGANIZATION ( #145, #32, #197 ) ;
#13 = DIRECTION ( 'NONE',  ( 1.000000000000000000, 0.000000000000000000, -0.000000000000000000 ) ) ;
#14 = CARTESIAN_POINT ( 'NONE',  ( -6.000000000000000888, 0.000000000000000000, 5.000000000000000000 ) ) ;
#15 = ORIENTED_EDGE ( 'NONE', *, *, #96, .T. ) ;
#16 = VECTOR ( 'NONE', #137, 1000.000000000000000 ) ;
#17 = SECURITY_CLASSIFICATION ( '', '', #246 ) ;
#18 = PERSON_AND_ORGANIZATION ( #36, #198 ) ;
#19 = DATE_AND_TIME ( #64, #202 ) ;
#20 = DIRECTION ( 'NONE',  ( 0.000000000000000000, 0.000000000000000000, 1.000000000000000000 ) ) ;
#21 = APPROVAL ( #185, 'NEURÈENÝ' ) ;
#22 = COORDINATED_UNIVERSAL_TIME_OFFSET ( 1, 0, .AHEAD. ) ;
#23 = FACE_OUTER_BOUND ( 'NONE', #143, .T. ) ;
#24 = AXIS2_PLACEMENT_3D ( 'NONE', #219, #7, #84 ) ;
#25 = VERTEX_POINT ( 'NONE', #200 ) ;
#26 = PERSON_AND_ORGANIZATION ( #36, #198 ) ;
#27 = CC_DESIGN_DATE_AND_TIME_ASSIGNMENT ( #19, #162, ( #168 ) ) ;
#28 = LINE ( 'NONE', #89, #2 ) ;
#29 = VECTOR ( 'NONE', #253, 1000.000000000000000 ) ;
#30 = DIRECTION ( 'NONE',  ( 0.000000000000000000, 0.000000000000000000, 1.000000000000000000 ) ) ;
#31 = DIRECTION ( 'NONE',  ( 1.000000000000000000, 0.000000000000000000, 0.000000000000000000 ) ) ;
#32 = APPROVAL ( #122, 'NEURÈENÝ' ) ;
#33 = APPLICATION_CONTEXT ( 'configuration controlled 3d designs of mechanical parts and assemblies' ) ;
#34 = CARTESIAN_POINT ( 'NONE',  ( 0.000000000000000000, 0.000000000000000000, 125.0000000000000000 ) ) ;
#35 = ORIENTED_EDGE ( 'NONE', *, *, #123, .F. ) ;
#36 = PERSON ( 'NEURÈENÝ', 'NEURÈENÝ', 'NEURÈENÝ', ('NEURÈENÝ'), ('NEURÈENÝ'), ('NEURÈENÝ') ) ;
#37 = CARTESIAN_POINT ( 'NONE',  ( 0.000000000000000000, 0.000000000000000000, 5.000000000000000000 ) ) ;
#38 =( GEOMETRIC_REPRESENTATION_CONTEXT ( 3 ) GLOBAL_UNCERTAINTY_ASSIGNED_CONTEXT ( ( #205 ) ) GLOBAL_UNIT_ASSIGNED_CONTEXT ( ( #86, #194, #9 ) ) REPRESENTATION_CONTEXT ( 'NONE', 'WORKASPACE' ) );
#39 = FACE_OUTER_BOUND ( 'NONE', #139, .T. ) ;
#40 = CYLINDRICAL_SURFACE ( 'NONE', #156, 6.000000000000000888 ) ;
#41 = ORIENTED_EDGE ( 'NONE', *, *, #134, .T. ) ;
#42 = PERSON_AND_ORGANIZATION ( #36, #198 ) ;
#43 = LOCAL_TIME ( 13, 17, 10.00000000000000000, #22 ) ;
#44 = DIRECTION ( 'NONE',  ( -0.000000000000000000, -0.000000000000000000, -1.000000000000000000 ) ) ;
#45 = CARTESIAN_POINT ( 'NONE',  ( 0.000000000000000000, 0.000000000000000000, 0.000000000000000000 ) ) ;
#46 = ADVANCED_FACE ( 'NONE', ( #23 ), #220, .T. ) ;
#47 = VERTEX_POINT ( 'NONE', #181 ) ;
#48 = DIRECTION ( 'NONE',  ( 0.000000000000000000, 0.000000000000000000, 1.000000000000000000 ) ) ;
#49 = FACE_OUTER_BOUND ( 'NONE', #240, .T. ) ;
#50 = DIRECTION ( 'NONE',  ( 1.000000000000000000, 0.000000000000000000, 0.000000000000000000 ) ) ;
#51 = PERSON_AND_ORGANIZATION ( #36, #198 ) ;
#52 = DIRECTION ( 'NONE',  ( 1.000000000000000000, 0.000000000000000000, 0.000000000000000000 ) ) ;
#53 = LOCAL_TIME ( 13, 17, 10.00000000000000000, #251 ) ;
#54 = DATE_AND_TIME ( #227, #53 ) ;
#55 = DIRECTION ( 'NONE',  ( 1.000000000000000000, 0.000000000000000000, 0.000000000000000000 ) ) ;
#56 = EDGE_LOOP ( 'NONE', ( #151, #70 ) ) ;
#57 = DIRECTION ( 'NONE',  ( 1.000000000000000000, 0.000000000000000000, 0.000000000000000000 ) ) ;
#58 = CIRCLE ( 'NONE', #71, 6.000000000000000888 ) ;
#59 = APPLICATION_PROTOCOL_DEFINITION ( 'international standard', 'config_control_design', 1994, #33 ) ;
#60 = PLANE ( 'NONE',  #73 ) ;
#61 = CARTESIAN_POINT ( 'NONE',  ( 6.000000000000000888, 7.347880794884120722E-16, 5.000000000000000000 ) ) ;
#62 = CIRCLE ( 'NONE', #88, 3.100000000000000089 ) ;
#63 = PERSON_AND_ORGANIZATION_ROLE ( 'classification_officer' ) ;
#64 = CALENDAR_DATE ( 2023, 12, 2 ) ;
#65 = ORIENTED_EDGE ( 'NONE', *, *, #134, .F. ) ;
#66 = CARTESIAN_POINT ( 'NONE',  ( 0.000000000000000000, 0.000000000000000000, 125.0000000000000000 ) ) ;
#67 = PERSON_AND_ORGANIZATION ( #36, #198 ) ;
#68 = DIRECTION ( 'NONE',  ( -1.000000000000000000, 0.000000000000000000, 0.000000000000000000 ) ) ;
#69 = AXIS2_PLACEMENT_3D ( 'NONE', #5, #20, #105 ) ;
#70 = ORIENTED_EDGE ( 'NONE', *, *, #182, .F. ) ;
#71 = AXIS2_PLACEMENT_3D ( 'NONE', #154, #229, #52 ) ;
#72 = PRODUCT_RELATED_PRODUCT_CATEGORY ( 'detail', '', ( #11 ) ) ;
#73 = AXIS2_PLACEMENT_3D ( 'NONE', #37, #98, #135 ) ;
#74 = DESIGN_CONTEXT ( 'detailed design', #33, 'design' ) ;
#75 = CARTESIAN_POINT ( 'NONE',  ( 0.000000000000000000, 0.000000000000000000, 5.000000000000000000 ) ) ;
#76 = CC_DESIGN_PERSON_AND_ORGANIZATION_ASSIGNMENT ( #26, #107, ( #168 ) ) ;
#77 = ORIENTED_EDGE ( 'NONE', *, *, #211, .T. ) ;
#78 = EDGE_CURVE ( 'NONE', #131, #102, #177, .T. ) ;
#79 = CARTESIAN_POINT ( 'NONE',  ( 0.000000000000000000, 0.000000000000000000, 5.000000000000000000 ) ) ;
#80 = DATE_AND_TIME ( #199, #43 ) ;
#81 = AXIS2_PLACEMENT_3D ( 'NONE', #180, #48, #178 ) ;
#82 = FACE_OUTER_BOUND ( 'NONE', #184, .T. ) ;
#83 = PERSON_AND_ORGANIZATION_ROLE ( 'design_owner' ) ;
#84 = DIRECTION ( 'NONE',  ( -1.000000000000000000, 0.000000000000000000, 0.000000000000000000 ) ) ;
#85 = CYLINDRICAL_SURFACE ( 'NONE', #104, 3.100000000000000089 ) ;
#86 =( LENGTH_UNIT ( ) NAMED_UNIT ( * ) SI_UNIT ( .MILLI., .METRE. ) );
#87 = DIRECTION ( 'NONE',  ( 0.000000000000000000, 0.000000000000000000, 1.000000000000000000 ) ) ;
#88 = AXIS2_PLACEMENT_3D ( 'NONE', #225, #155, #31 ) ;
#89 = CARTESIAN_POINT ( 'NONE',  ( 6.000000000000000888, 7.347880794884120722E-16, 5.000000000000000000 ) ) ;
#90 = ORIENTED_EDGE ( 'NONE', *, *, #233, .F. ) ;
#91 = EDGE_CURVE ( 'NONE', #131, #164, #110, .T. ) ;
#92 = APPROVAL_ROLE ( '' ) ;
#93 = ORIENTED_EDGE ( 'NONE', *, *, #78, .F. ) ;
#94 = AXIS2_PLACEMENT_3D ( 'NONE', #142, #87, #50 ) ;
#95 = DIRECTION ( 'NONE',  ( 0.000000000000000000, 0.000000000000000000, 1.000000000000000000 ) ) ;
#96 = EDGE_CURVE ( 'NONE', #196, #254, #113, .T. ) ;
#97 = LOCAL_TIME ( 13, 17, 10.00000000000000000, #248 ) ;
#98 = DIRECTION ( 'NONE',  ( 0.000000000000000000, 0.000000000000000000, 1.000000000000000000 ) ) ;
#99 = ORIENTED_EDGE ( 'NONE', *, *, #167, .F. ) ;
#100 = DIRECTION ( 'NONE',  ( 0.000000000000000000, 0.000000000000000000, 1.000000000000000000 ) ) ;
#101 = APPLICATION_CONTEXT ( 'configuration controlled 3d designs of mechanical parts and assemblies' ) ;
#102 = VERTEX_POINT ( 'NONE', #128 ) ;
#103 = APPROVAL_STATUS ( 'not_yet_approved' ) ;
#104 = AXIS2_PLACEMENT_3D ( 'NONE', #66, #44, #163 ) ;
#105 = DIRECTION ( 'NONE',  ( 1.000000000000000000, 0.000000000000000000, 0.000000000000000000 ) ) ;
#106 = AXIS2_PLACEMENT_3D ( 'NONE', #188, #100, #209 ) ;
#107 = PERSON_AND_ORGANIZATION_ROLE ( 'creator' ) ;
#108 = ORIENTED_EDGE ( 'NONE', *, *, #233, .T. ) ;
#109 = DATE_TIME_ROLE ( 'classification_date' ) ;
#110 = CIRCLE ( 'NONE', #81, 3.100000000000000089 ) ;
#111 = PERSON_AND_ORGANIZATION_ROLE ( 'design_supplier' ) ;
#112 = ORIENTED_EDGE ( 'NONE', *, *, #211, .F. ) ;
#113 = CIRCLE ( 'NONE', #69, 6.000000000000000888 ) ;
#114 = FACE_BOUND ( 'NONE', #56, .T. ) ;
#115 = DIRECTION ( 'NONE',  ( 1.000000000000000000, 0.000000000000000000, -0.000000000000000000 ) ) ;
#116 = ADVANCED_FACE ( 'NONE', ( #82 ), #85, .T. ) ;
#117 = ORIENTED_EDGE ( 'NONE', *, *, #91, .T. ) ;
#118 = CC_DESIGN_PERSON_AND_ORGANIZATION_ASSIGNMENT ( #235, #83, ( #11 ) ) ;
#119 = ORIENTED_EDGE ( 'NONE', *, *, #242, .T. ) ;
#120 = CC_DESIGN_APPROVAL ( #32, ( #168 ) ) ;
#121 = CALENDAR_DATE ( 2023, 12, 2 ) ;
#122 = APPROVAL_STATUS ( 'not_yet_approved' ) ;
#123 = EDGE_CURVE ( 'NONE', #25, #221, #247, .T. ) ;
#124 = CARTESIAN_POINT ( 'NONE',  ( 0.000000000000000000, 0.000000000000000000, 125.0000000000000000 ) ) ;
#125 = CC_DESIGN_DATE_AND_TIME_ASSIGNMENT ( #204, #109, ( #17 ) ) ;
#126 = CARTESIAN_POINT ( 'NONE',  ( -3.100000000000000089, 0.000000000000000000, 125.0000000000000000 ) ) ;
#127 = APPROVAL ( #103, 'NEURÈENÝ' ) ;
#128 = CARTESIAN_POINT ( 'NONE',  ( -3.100000000000000089, 0.000000000000000000, 5.000000000000000000 ) ) ;
#129 = AXIS2_PLACEMENT_3D ( 'NONE', #45, #166, #165 ) ;
#130 = APPROVAL_DATE_TIME ( #54, #21 ) ;
#131 = VERTEX_POINT ( 'NONE', #126 ) ;
#132 = CC_DESIGN_PERSON_AND_ORGANIZATION_ASSIGNMENT ( #175, #111, ( #237 ) ) ;
#133 = AXIS2_PLACEMENT_3D ( 'NONE', #75, #30, #55 ) ;
#134 = EDGE_CURVE ( 'NONE', #254, #221, #28, .T. ) ;
#135 = DIRECTION ( 'NONE',  ( 1.000000000000000000, 0.000000000000000000, -0.000000000000000000 ) ) ;
#136 = AXIS2_PLACEMENT_3D ( 'NONE', #79, #95, #57 ) ;
#137 = DIRECTION ( 'NONE',  ( -0.000000000000000000, -0.000000000000000000, -1.000000000000000000 ) ) ;
#138 = DIRECTION ( 'NONE',  ( -0.000000000000000000, -0.000000000000000000, -1.000000000000000000 ) ) ;
#139 = EDGE_LOOP ( 'NONE', ( #35, #232 ) ) ;
#140 = ORIENTED_EDGE ( 'NONE', *, *, #96, .F. ) ;
#141 = EDGE_CURVE ( 'NONE', #102, #47, #62, .T. ) ;
#142 = CARTESIAN_POINT ( 'NONE',  ( 0.000000000000000000, 0.000000000000000000, 0.000000000000000000 ) ) ;
#143 = EDGE_LOOP ( 'NONE', ( #112, #255, #228, #93 ) ) ;
#144 = SHAPE_DEFINITION_REPRESENTATION ( #159, #203 ) ;
#145 = PERSON_AND_ORGANIZATION ( #36, #198 ) ;
#146 = DIRECTION ( 'NONE',  ( -0.000000000000000000, -0.000000000000000000, -1.000000000000000000 ) ) ;
#147 = DIRECTION ( 'NONE',  ( -0.000000000000000000, -0.000000000000000000, -1.000000000000000000 ) ) ;
#148 = ORIENTED_EDGE ( 'NONE', *, *, #123, .T. ) ;
#149 = AXIS2_PLACEMENT_3D ( 'NONE', #230, #1, #115 ) ;
#150 = CALENDAR_DATE ( 2023, 12, 2 ) ;
#151 = ORIENTED_EDGE ( 'NONE', *, *, #141, .F. ) ;
#152 = CARTESIAN_POINT ( 'NONE',  ( 3.100000000000000089, 3.796405077356794918E-16, 125.0000000000000000 ) ) ;
#153 = ORIENTED_EDGE ( 'NONE', *, *, #141, .T. ) ;
#154 = CARTESIAN_POINT ( 'NONE',  ( 0.000000000000000000, 0.000000000000000000, 0.000000000000000000 ) ) ;
#155 = DIRECTION ( 'NONE',  ( 0.000000000000000000, 0.000000000000000000, 1.000000000000000000 ) ) ;
#156 = AXIS2_PLACEMENT_3D ( 'NONE', #192, #138, #68 ) ;
#157 = ORIENTED_EDGE ( 'NONE', *, *, #242, .F. ) ;
#158 = VECTOR ( 'NONE', #179, 1000.000000000000000 ) ;
#159 = PRODUCT_DEFINITION_SHAPE ( 'NONE', 'NONE',  #168 ) ;
#160 = APPROVAL_DATE_TIME ( #238, #127 ) ;
#161 = PERSON_AND_ORGANIZATION_ROLE ( 'creator' ) ;
#162 = DATE_TIME_ROLE ( 'creation_date' ) ;
#163 = DIRECTION ( 'NONE',  ( -1.000000000000000000, 0.000000000000000000, 0.000000000000000000 ) ) ;
#164 = VERTEX_POINT ( 'NONE', #186 ) ;
#165 = DIRECTION ( 'NONE',  ( 1.000000000000000000, 0.000000000000000000, 0.000000000000000000 ) ) ;
#166 = DIRECTION ( 'NONE',  ( 0.000000000000000000, 0.000000000000000000, 1.000000000000000000 ) ) ;
#167 = EDGE_CURVE ( 'NONE', #164, #47, #169, .T. ) ;
#168 = PRODUCT_DEFINITION ( 'NEZNÁMÝ', '', #237, #74 ) ;
#169 = LINE ( 'NONE', #152, #29 ) ;
#170 = CARTESIAN_POINT ( 'NONE',  ( -6.000000000000000888, 0.000000000000000000, 5.000000000000000000 ) ) ;
#171 = PLANE ( 'NONE',  #149 ) ;
#172 = ORIENTED_EDGE ( 'NONE', *, *, #91, .F. ) ;
#173 = ORIENTED_EDGE ( 'NONE', *, *, #201, .T. ) ;
#174 = CARTESIAN_POINT ( 'NONE',  ( 6.000000000000000888, 7.347880794884120722E-16, 0.000000000000000000 ) ) ;
#175 = PERSON_AND_ORGANIZATION ( #36, #198 ) ;
#176 = COORDINATED_UNIVERSAL_TIME_OFFSET ( 1, 0, .AHEAD. ) ;
#177 = LINE ( 'NONE', #245, #158 ) ;
#178 = DIRECTION ( 'NONE',  ( 1.000000000000000000, 0.000000000000000000, 0.000000000000000000 ) ) ;
#179 = DIRECTION ( 'NONE',  ( -0.000000000000000000, -0.000000000000000000, -1.000000000000000000 ) ) ;
#180 = CARTESIAN_POINT ( 'NONE',  ( 0.000000000000000000, 0.000000000000000000, 125.0000000000000000 ) ) ;
#181 = CARTESIAN_POINT ( 'NONE',  ( 3.100000000000000089, 3.796405077356794918E-16, 5.000000000000000000 ) ) ;
#182 = EDGE_CURVE ( 'NONE', #47, #102, #206, .T. ) ;
#183 = DIRECTION ( 'NONE',  ( 0.000000000000000000, 0.000000000000000000, 1.000000000000000000 ) ) ;
#184 = EDGE_LOOP ( 'NONE', ( #99, #172, #189, #153 ) ) ;
#185 = APPROVAL_STATUS ( 'not_yet_approved' ) ;
#186 = CARTESIAN_POINT ( 'NONE',  ( 3.100000000000000089, 3.796405077356794918E-16, 125.0000000000000000 ) ) ;
#187 = EDGE_LOOP ( 'NONE', ( #15, #119 ) ) ;
#188 = CARTESIAN_POINT ( 'NONE',  ( 0.000000000000000000, 0.000000000000000000, 125.0000000000000000 ) ) ;
#189 = ORIENTED_EDGE ( 'NONE', *, *, #78, .T. ) ;
#190 = CC_DESIGN_SECURITY_CLASSIFICATION ( #17, ( #237 ) ) ;
#191 = CC_DESIGN_PERSON_AND_ORGANIZATION_ASSIGNMENT ( #42, #161, ( #237 ) ) ;
#192 = CARTESIAN_POINT ( 'NONE',  ( 0.000000000000000000, 0.000000000000000000, 5.000000000000000000 ) ) ;
#193 = ADVANCED_FACE ( 'NONE', ( #207 ), #226, .T. ) ;
#194 =( NAMED_UNIT ( * ) PLANE_ANGLE_UNIT ( ) SI_UNIT ( $, .RADIAN. ) );
#195 = MECHANICAL_CONTEXT ( 'NONE', #101, 'mechanical' ) ;
#196 = VERTEX_POINT ( 'NONE', #170 ) ;
#197 = APPROVAL_ROLE ( '' ) ;
#198 = ORGANIZATION ( 'NEURÈENÝ', 'NEURÈENÝ', '' ) ;
#199 = CALENDAR_DATE ( 2023, 12, 2 ) ;
#200 = CARTESIAN_POINT ( 'NONE',  ( -6.000000000000000888, 0.000000000000000000, 0.000000000000000000 ) ) ;
#201 = EDGE_CURVE ( 'NONE', #221, #25, #58, .T. ) ;
#202 = LOCAL_TIME ( 13, 17, 10.00000000000000000, #176 ) ;
#203 = ADVANCED_BREP_SHAPE_REPRESENTATION ( '189f', ( #249, #129 ), #38 ) ;
#204 = DATE_AND_TIME ( #150, #97 ) ;
#205 = UNCERTAINTY_MEASURE_WITH_UNIT (LENGTH_MEASURE( 1.000000000000000082E-05 ), #86, 'distance_accuracy_value', 'NONE');
#206 = CIRCLE ( 'NONE', #133, 3.100000000000000089 ) ;
#207 = FACE_OUTER_BOUND ( 'NONE', #241, .T. ) ;
#208 = AXIS2_PLACEMENT_3D ( 'NONE', #124, #146, #223 ) ;
#209 = DIRECTION ( 'NONE',  ( 1.000000000000000000, 0.000000000000000000, 0.000000000000000000 ) ) ;
#210 = CC_DESIGN_APPROVAL ( #127, ( #237 ) ) ;
#211 = EDGE_CURVE ( 'NONE', #164, #131, #8, .T. ) ;
#212 = CIRCLE ( 'NONE', #136, 6.000000000000000888 ) ;
#213 = CC_DESIGN_PERSON_AND_ORGANIZATION_ASSIGNMENT ( #67, #63, ( #17 ) ) ;
#214 = FACE_OUTER_BOUND ( 'NONE', #217, .T. ) ;
#215 = COORDINATED_UNIVERSAL_TIME_OFFSET ( 1, 0, .AHEAD. ) ;
#216 = CYLINDRICAL_SURFACE ( 'NONE', #24, 6.000000000000000888 ) ;
#217 = EDGE_LOOP ( 'NONE', ( #157, #41, #173, #90 ) ) ;
#218 = CC_DESIGN_APPROVAL ( #21, ( #17 ) ) ;
#219 = CARTESIAN_POINT ( 'NONE',  ( 0.000000000000000000, 0.000000000000000000, 5.000000000000000000 ) ) ;
#220 = CYLINDRICAL_SURFACE ( 'NONE', #208, 3.100000000000000089 ) ;
#221 = VERTEX_POINT ( 'NONE', #174 ) ;
#222 = APPROVAL_ROLE ( '' ) ;
#223 = DIRECTION ( 'NONE',  ( -1.000000000000000000, 0.000000000000000000, 0.000000000000000000 ) ) ;
#224 = ADVANCED_FACE ( 'NONE', ( #114, #4 ), #60, .T. ) ;
#225 = CARTESIAN_POINT ( 'NONE',  ( 0.000000000000000000, 0.000000000000000000, 5.000000000000000000 ) ) ;
#226 = PLANE ( 'NONE',  #236 ) ;
#227 = CALENDAR_DATE ( 2023, 12, 2 ) ;
#228 = ORIENTED_EDGE ( 'NONE', *, *, #182, .T. ) ;
#229 = DIRECTION ( 'NONE',  ( 0.000000000000000000, 0.000000000000000000, 1.000000000000000000 ) ) ;
#230 = CARTESIAN_POINT ( 'NONE',  ( 0.000000000000000000, 0.000000000000000000, 0.000000000000000000 ) ) ;
#231 = CLOSED_SHELL ( 'NONE', ( #46, #244, #252, #224, #234, #116, #193 ) ) ;
#232 = ORIENTED_EDGE ( 'NONE', *, *, #201, .F. ) ;
#233 = EDGE_CURVE ( 'NONE', #196, #25, #3, .T. ) ;
#234 = ADVANCED_FACE ( 'NONE', ( #39 ), #171, .F. ) ;
#235 = PERSON_AND_ORGANIZATION ( #36, #198 ) ;
#236 = AXIS2_PLACEMENT_3D ( 'NONE', #34, #183, #13 ) ;
#237 = PRODUCT_DEFINITION_FORMATION_WITH_SPECIFIED_SOURCE ( 'LIBOVOLNÝ', '', #11, .NOT_KNOWN. ) ;
#238 = DATE_AND_TIME ( #121, #10 ) ;
#239 = APPROVAL_PERSON_ORGANIZATION ( #51, #21, #92 ) ;
#240 = EDGE_LOOP ( 'NONE', ( #65, #140, #108, #148 ) ) ;
#241 = EDGE_LOOP ( 'NONE', ( #117, #77 ) ) ;
#242 = EDGE_CURVE ( 'NONE', #254, #196, #212, .T. ) ;
#243 = APPROVAL_DATE_TIME ( #80, #32 ) ;
#244 = ADVANCED_FACE ( 'NONE', ( #214 ), #40, .T. ) ;
#245 = CARTESIAN_POINT ( 'NONE',  ( -3.100000000000000089, 0.000000000000000000, 125.0000000000000000 ) ) ;
#246 = SECURITY_CLASSIFICATION_LEVEL ( 'unclassified' ) ;
#247 = CIRCLE ( 'NONE', #94, 6.000000000000000888 ) ;
#248 = COORDINATED_UNIVERSAL_TIME_OFFSET ( 1, 0, .AHEAD. ) ;
#249 = MANIFOLD_SOLID_BREP ( 'Pøidat vysunutím3', #231 ) ;
#250 = APPROVAL_PERSON_ORGANIZATION ( #18, #127, #222 ) ;
#251 = COORDINATED_UNIVERSAL_TIME_OFFSET ( 1, 0, .AHEAD. ) ;
#252 = ADVANCED_FACE ( 'NONE', ( #49 ), #216, .T. ) ;
#253 = DIRECTION ( 'NONE',  ( -0.000000000000000000, -0.000000000000000000, -1.000000000000000000 ) ) ;
#254 = VERTEX_POINT ( 'NONE', #61 ) ;
#255 = ORIENTED_EDGE ( 'NONE', *, *, #167, .T. ) ;
ENDSEC;
END-ISO-10303-21;
