ISO-10303-21;
HEADER;
FILE_DESCRIPTION (( 'STEP AP203' ),
    '1' );
FILE_NAME ('877e.STEP',
    '2023-02-12T12:53:49',
    ( '' ),
    ( '' ),
    'SwSTEP 2.0',
    'SolidWorks 2019',
    '' );
FILE_SCHEMA (( 'CONFIG_CONTROL_DESIGN' ));
ENDSEC;

DATA;
#1 = PERSON_AND_ORGANIZATION ( #213, #104 ) ;
#2 = CALENDAR_DATE ( 2023, 12, 2 ) ;
#3 = CARTESIAN_POINT ( 'NONE',  ( 0.000000000000000000, 0.000000000000000000, 160.0000000000000000 ) ) ;
#4 = DIRECTION ( 'NONE',  ( 0.000000000000000000, 0.000000000000000000, 1.000000000000000000 ) ) ;
#5 = PERSON_AND_ORGANIZATION_ROLE ( 'design_supplier' ) ;
#6 = DIRECTION ( 'NONE',  ( 0.000000000000000000, 0.000000000000000000, 1.000000000000000000 ) ) ;
#7 = CALENDAR_DATE ( 2023, 12, 2 ) ;
#8 = LINE ( 'NONE', #87, #9 ) ;
#9 = VECTOR ( 'NONE', #166, 1000.000000000000000 ) ;
#10 = AXIS2_PLACEMENT_3D ( 'NONE', #49, #203, #81 ) ;
#11 = LINE ( 'NONE', #33, #20 ) ;
#12 = DIRECTION ( 'NONE',  ( 0.000000000000000000, 0.000000000000000000, 1.000000000000000000 ) ) ;
#13 = ORIENTED_EDGE ( 'NONE', *, *, #254, .T. ) ;
#14 = APPROVAL ( #137, 'NEURÈENÝ' ) ;
#15 = CARTESIAN_POINT ( 'NONE',  ( 0.000000000000000000, 0.000000000000000000, 1.500000000000000000 ) ) ;
#16 = ORIENTED_EDGE ( 'NONE', *, *, #71, .F. ) ;
#17 = ORIENTED_EDGE ( 'NONE', *, *, #160, .T. ) ;
#18 = AXIS2_PLACEMENT_3D ( 'NONE', #129, #216, #46 ) ;
#19 = ORIENTED_EDGE ( 'NONE', *, *, #121, .T. ) ;
#20 = VECTOR ( 'NONE', #89, 1000.000000000000000 ) ;
#21 = CC_DESIGN_PERSON_AND_ORGANIZATION_ASSIGNMENT ( #161, #5, ( #136 ) ) ;
#22 = VECTOR ( 'NONE', #58, 1000.000000000000000 ) ;
#23 =( NAMED_UNIT ( * ) SI_UNIT ( $, .STERADIAN. ) SOLID_ANGLE_UNIT ( ) );
#24 = MECHANICAL_CONTEXT ( 'NONE', #229, 'mechanical' ) ;
#25 = COORDINATED_UNIVERSAL_TIME_OFFSET ( 1, 0, .AHEAD. ) ;
#26 = CARTESIAN_POINT ( 'NONE',  ( -2.000000000000000000, 0.000000000000000000, 1.500000000000000000 ) ) ;
#27 = APPROVAL_STATUS ( 'not_yet_approved' ) ;
#28 = ADVANCED_FACE ( 'NONE', ( #231 ), #212, .T. ) ;
#29 = APPLICATION_PROTOCOL_DEFINITION ( 'international standard', 'config_control_design', 1994, #247 ) ;
#30 = COORDINATED_UNIVERSAL_TIME_OFFSET ( 1, 0, .AHEAD. ) ;
#31 = DIRECTION ( 'NONE',  ( -0.000000000000000000, -0.000000000000000000, -1.000000000000000000 ) ) ;
#32 = LOCAL_TIME ( 13, 53, 49.00000000000000000, #25 ) ;
#33 = CARTESIAN_POINT ( 'NONE',  ( 2.000000000000000000, 2.449293598294706414E-16, 1.500000000000000000 ) ) ;
#34 = VERTEX_POINT ( 'NONE', #109 ) ;
#35 = ORIENTED_EDGE ( 'NONE', *, *, #54, .F. ) ;
#36 = ORIENTED_EDGE ( 'NONE', *, *, #160, .F. ) ;
#37 = ADVANCED_FACE ( 'NONE', ( #47 ), #43, .T. ) ;
#38 = CIRCLE ( 'NONE', #10, 2.000000000000000000 ) ;
#39 = ORIENTED_EDGE ( 'NONE', *, *, #186, .T. ) ;
#40 = CC_DESIGN_APPROVAL ( #234, ( #88 ) ) ;
#41 = ORIENTED_EDGE ( 'NONE', *, *, #230, .F. ) ;
#42 = PERSON_AND_ORGANIZATION ( #213, #104 ) ;
#43 = CYLINDRICAL_SURFACE ( 'NONE', #219, 2.000000000000000000 ) ;
#44 = EDGE_CURVE ( 'NONE', #152, #92, #248, .T. ) ;
#45 = CARTESIAN_POINT ( 'NONE',  ( -2.000000000000000000, 0.000000000000000000, 0.000000000000000000 ) ) ;
#46 = DIRECTION ( 'NONE',  ( 1.000000000000000000, 0.000000000000000000, 0.000000000000000000 ) ) ;
#47 = FACE_OUTER_BOUND ( 'NONE', #67, .T. ) ;
#48 = APPROVAL_ROLE ( '' ) ;
#49 = CARTESIAN_POINT ( 'NONE',  ( 0.000000000000000000, 0.000000000000000000, 0.000000000000000000 ) ) ;
#50 = SHAPE_DEFINITION_REPRESENTATION ( #208, #172 ) ;
#51 = EDGE_LOOP ( 'NONE', ( #41, #74 ) ) ;
#52 = CC_DESIGN_APPROVAL ( #14, ( #136 ) ) ;
#53 = CIRCLE ( 'NONE', #227, 2.000000000000000000 ) ;
#54 = EDGE_CURVE ( 'NONE', #76, #114, #243, .T. ) ;
#55 = ORIENTED_EDGE ( 'NONE', *, *, #206, .F. ) ;
#56 = LOCAL_TIME ( 13, 53, 49.00000000000000000, #184 ) ;
#57 = AXIS2_PLACEMENT_3D ( 'NONE', #144, #223, #225 ) ;
#58 = DIRECTION ( 'NONE',  ( -0.000000000000000000, -0.000000000000000000, -1.000000000000000000 ) ) ;
#59 = DIRECTION ( 'NONE',  ( 0.000000000000000000, 0.000000000000000000, 1.000000000000000000 ) ) ;
#60 = CARTESIAN_POINT ( 'NONE',  ( 0.000000000000000000, 0.000000000000000000, 0.000000000000000000 ) ) ;
#61 = ORIENTED_EDGE ( 'NONE', *, *, #186, .F. ) ;
#62 = PERSON_AND_ORGANIZATION_ROLE ( 'classification_officer' ) ;
#63 = EDGE_CURVE ( 'NONE', #114, #152, #140, .T. ) ;
#64 = PRODUCT ( '877e', '877e', '', ( #24 ) ) ;
#65 = ORIENTED_EDGE ( 'NONE', *, *, #206, .T. ) ;
#66 = CARTESIAN_POINT ( 'NONE',  ( 0.9499999999999999556, 1.163414459189985682E-16, 1.500000000000000000 ) ) ;
#67 = EDGE_LOOP ( 'NONE', ( #171, #65, #17, #217 ) ) ;
#68 = FACE_OUTER_BOUND ( 'NONE', #255, .T. ) ;
#69 = APPROVAL_STATUS ( 'not_yet_approved' ) ;
#70 = FACE_OUTER_BOUND ( 'NONE', #96, .T. ) ;
#71 = EDGE_CURVE ( 'NONE', #76, #92, #174, .T. ) ;
#72 = CALENDAR_DATE ( 2023, 12, 2 ) ;
#73 = CC_DESIGN_PERSON_AND_ORGANIZATION_ASSIGNMENT ( #42, #175, ( #136 ) ) ;
#74 = ORIENTED_EDGE ( 'NONE', *, *, #44, .F. ) ;
#75 = ORIENTED_EDGE ( 'NONE', *, *, #121, .F. ) ;
#76 = VERTEX_POINT ( 'NONE', #143 ) ;
#77 = MANIFOLD_SOLID_BREP ( 'Pøidat vysunutím3', #126 ) ;
#78 = PERSON_AND_ORGANIZATION ( #213, #104 ) ;
#79 = PRODUCT_DEFINITION ( 'NEZNÁMÝ', '', #136, #253 ) ;
#80 = DIRECTION ( 'NONE',  ( -0.000000000000000000, -0.000000000000000000, -1.000000000000000000 ) ) ;
#81 = DIRECTION ( 'NONE',  ( 1.000000000000000000, 0.000000000000000000, 0.000000000000000000 ) ) ;
#82 = CIRCLE ( 'NONE', #122, 2.000000000000000000 ) ;
#83 = PERSON_AND_ORGANIZATION_ROLE ( 'design_owner' ) ;
#84 = CARTESIAN_POINT ( 'NONE',  ( 0.9499999999999999556, 1.163414459189985682E-16, 160.0000000000000000 ) ) ;
#85 = APPROVAL_ROLE ( '' ) ;
#86 = DIRECTION ( 'NONE',  ( 1.000000000000000000, 0.000000000000000000, 0.000000000000000000 ) ) ;
#87 = CARTESIAN_POINT ( 'NONE',  ( -2.000000000000000000, 0.000000000000000000, 1.500000000000000000 ) ) ;
#88 = SECURITY_CLASSIFICATION ( '', '', #163 ) ;
#89 = DIRECTION ( 'NONE',  ( -0.000000000000000000, -0.000000000000000000, -1.000000000000000000 ) ) ;
#90 = DIRECTION ( 'NONE',  ( 1.000000000000000000, 0.000000000000000000, -0.000000000000000000 ) ) ;
#91 = PLANE ( 'NONE',  #123 ) ;
#92 = VERTEX_POINT ( 'NONE', #218 ) ;
#93 = ORIENTED_EDGE ( 'NONE', *, *, #44, .T. ) ;
#94 = ORIENTED_EDGE ( 'NONE', *, *, #71, .T. ) ;
#95 = ORIENTED_EDGE ( 'NONE', *, *, #230, .T. ) ;
#96 = EDGE_LOOP ( 'NONE', ( #19, #13 ) ) ;
#97 = LOCAL_TIME ( 13, 53, 49.00000000000000000, #105 ) ;
#98 = VERTEX_POINT ( 'NONE', #45 ) ;
#99 = CARTESIAN_POINT ( 'NONE',  ( 0.000000000000000000, 0.000000000000000000, 160.0000000000000000 ) ) ;
#100 = EDGE_CURVE ( 'NONE', #114, #76, #226, .T. ) ;
#101 = DATE_TIME_ROLE ( 'creation_date' ) ;
#102 = DIRECTION ( 'NONE',  ( 1.000000000000000000, 0.000000000000000000, 0.000000000000000000 ) ) ;
#103 = AXIS2_PLACEMENT_3D ( 'NONE', #99, #59, #242 ) ;
#104 = ORGANIZATION ( 'NEURÈENÝ', 'NEURÈENÝ', '' ) ;
#105 = COORDINATED_UNIVERSAL_TIME_OFFSET ( 1, 0, .AHEAD. ) ;
#106 = CARTESIAN_POINT ( 'NONE',  ( 0.000000000000000000, 0.000000000000000000, 1.500000000000000000 ) ) ;
#107 = DATE_AND_TIME ( #139, #32 ) ;
#108 = CARTESIAN_POINT ( 'NONE',  ( 0.000000000000000000, 0.000000000000000000, 160.0000000000000000 ) ) ;
#109 = CARTESIAN_POINT ( 'NONE',  ( 2.000000000000000000, 2.449293598294706414E-16, 0.000000000000000000 ) ) ;
#110 = APPROVAL_DATE_TIME ( #148, #234 ) ;
#111 = AXIS2_PLACEMENT_3D ( 'NONE', #60, #199, #165 ) ;
#112 = DIRECTION ( 'NONE',  ( -0.000000000000000000, -0.000000000000000000, -1.000000000000000000 ) ) ;
#113 = FACE_OUTER_BOUND ( 'NONE', #193, .T. ) ;
#114 = VERTEX_POINT ( 'NONE', #202 ) ;
#115 = PERSON_AND_ORGANIZATION ( #213, #104 ) ;
#116 = ADVANCED_FACE ( 'NONE', ( #127 ), #128, .T. ) ;
#117 = DIRECTION ( 'NONE',  ( 0.000000000000000000, 0.000000000000000000, 1.000000000000000000 ) ) ;
#118 = VERTEX_POINT ( 'NONE', #26 ) ;
#119 = CC_DESIGN_APPROVAL ( #153, ( #79 ) ) ;
#120 = ORIENTED_EDGE ( 'NONE', *, *, #63, .F. ) ;
#121 = EDGE_CURVE ( 'NONE', #118, #188, #169, .T. ) ;
#122 = AXIS2_PLACEMENT_3D ( 'NONE', #185, #12, #207 ) ;
#123 = AXIS2_PLACEMENT_3D ( 'NONE', #167, #145, #90 ) ;
#124 = ORIENTED_EDGE ( 'NONE', *, *, #63, .T. ) ;
#125 = DIRECTION ( 'NONE',  ( -0.000000000000000000, -0.000000000000000000, -1.000000000000000000 ) ) ;
#126 = CLOSED_SHELL ( 'NONE', ( #116, #37, #179, #173, #209, #135, #28 ) ) ;
#127 = FACE_OUTER_BOUND ( 'NONE', #162, .T. ) ;
#128 = CYLINDRICAL_SURFACE ( 'NONE', #200, 0.9499999999999999556 ) ;
#129 = CARTESIAN_POINT ( 'NONE',  ( 0.000000000000000000, 0.000000000000000000, 160.0000000000000000 ) ) ;
#130 = CC_DESIGN_DATE_AND_TIME_ASSIGNMENT ( #220, #101, ( #79 ) ) ;
#131 = CARTESIAN_POINT ( 'NONE',  ( 0.000000000000000000, 0.000000000000000000, 0.000000000000000000 ) ) ;
#132 = AXIS2_PLACEMENT_3D ( 'NONE', #245, #4, #86 ) ;
#133 = AXIS2_PLACEMENT_3D ( 'NONE', #178, #6, #102 ) ;
#134 = CYLINDRICAL_SURFACE ( 'NONE', #159, 2.000000000000000000 ) ;
#135 = ADVANCED_FACE ( 'NONE', ( #181 ), #164, .T. ) ;
#136 = PRODUCT_DEFINITION_FORMATION_WITH_SPECIFIED_SOURCE ( 'LIBOVOLNÝ', '', #64, .NOT_KNOWN. ) ;
#137 = APPROVAL_STATUS ( 'not_yet_approved' ) ;
#138 = DIRECTION ( 'NONE',  ( 0.000000000000000000, 0.000000000000000000, 1.000000000000000000 ) ) ;
#139 = CALENDAR_DATE ( 2023, 12, 2 ) ;
#140 = LINE ( 'NONE', #84, #22 ) ;
#141 = CC_DESIGN_PERSON_AND_ORGANIZATION_ASSIGNMENT ( #1, #83, ( #64 ) ) ;
#142 = AXIS2_PLACEMENT_3D ( 'NONE', #237, #138, #157 ) ;
#143 = CARTESIAN_POINT ( 'NONE',  ( -0.9499999999999999556, 0.000000000000000000, 160.0000000000000000 ) ) ;
#144 = CARTESIAN_POINT ( 'NONE',  ( 0.000000000000000000, 0.000000000000000000, 1.500000000000000000 ) ) ;
#145 = DIRECTION ( 'NONE',  ( 0.000000000000000000, 0.000000000000000000, 1.000000000000000000 ) ) ;
#146 = EDGE_CURVE ( 'NONE', #118, #98, #8, .T. ) ;
#147 = DIRECTION ( 'NONE',  ( -1.000000000000000000, 0.000000000000000000, 0.000000000000000000 ) ) ;
#148 = DATE_AND_TIME ( #72, #56 ) ;
#149 = AXIS2_PLACEMENT_3D ( 'NONE', #3, #112, #221 ) ;
#150 = APPROVAL_PERSON_ORGANIZATION ( #115, #234, #48 ) ;
#151 = EDGE_LOOP ( 'NONE', ( #228, #170 ) ) ;
#152 = VERTEX_POINT ( 'NONE', #66 ) ;
#153 = APPROVAL ( #27, 'NEURÈENÝ' ) ;
#154 =( NAMED_UNIT ( * ) PLANE_ANGLE_UNIT ( ) SI_UNIT ( $, .RADIAN. ) );
#155 = EDGE_LOOP ( 'NONE', ( #120, #35, #94, #95 ) ) ;
#156 = PERSON_AND_ORGANIZATION ( #213, #104 ) ;
#157 = DIRECTION ( 'NONE',  ( 1.000000000000000000, 0.000000000000000000, 0.000000000000000000 ) ) ;
#158 = APPROVAL_DATE_TIME ( #180, #14 ) ;
#159 = AXIS2_PLACEMENT_3D ( 'NONE', #210, #250, #147 ) ;
#160 = EDGE_CURVE ( 'NONE', #34, #98, #38, .T. ) ;
#161 = PERSON_AND_ORGANIZATION ( #213, #104 ) ;
#162 = EDGE_LOOP ( 'NONE', ( #235, #124, #93, #16 ) ) ;
#163 = SECURITY_CLASSIFICATION_LEVEL ( 'unclassified' ) ;
#164 = CYLINDRICAL_SURFACE ( 'NONE', #149, 0.9499999999999999556 ) ;
#165 = DIRECTION ( 'NONE',  ( 1.000000000000000000, 0.000000000000000000, 0.000000000000000000 ) ) ;
#166 = DIRECTION ( 'NONE',  ( -0.000000000000000000, -0.000000000000000000, -1.000000000000000000 ) ) ;
#167 = CARTESIAN_POINT ( 'NONE',  ( 0.000000000000000000, 0.000000000000000000, 0.000000000000000000 ) ) ;
#168 = DIRECTION ( 'NONE',  ( 0.000000000000000000, 0.000000000000000000, 1.000000000000000000 ) ) ;
#169 = CIRCLE ( 'NONE', #133, 2.000000000000000000 ) ;
#170 = ORIENTED_EDGE ( 'NONE', *, *, #100, .T. ) ;
#171 = ORIENTED_EDGE ( 'NONE', *, *, #254, .F. ) ;
#172 = ADVANCED_BREP_SHAPE_REPRESENTATION ( '877e', ( #77, #111 ), #214 ) ;
#173 = ADVANCED_FACE ( 'NONE', ( #187, #70 ), #246, .T. ) ;
#174 = LINE ( 'NONE', #240, #195 ) ;
#175 = PERSON_AND_ORGANIZATION_ROLE ( 'creator' ) ;
#176 = DIRECTION ( 'NONE',  ( -1.000000000000000000, 0.000000000000000000, 0.000000000000000000 ) ) ;
#177 = APPROVAL_ROLE ( '' ) ;
#178 = CARTESIAN_POINT ( 'NONE',  ( 0.000000000000000000, 0.000000000000000000, 1.500000000000000000 ) ) ;
#179 = ADVANCED_FACE ( 'NONE', ( #68 ), #134, .T. ) ;
#180 = DATE_AND_TIME ( #2, #97 ) ;
#181 = FACE_OUTER_BOUND ( 'NONE', #155, .T. ) ;
#182 = AXIS2_PLACEMENT_3D ( 'NONE', #15, #168, #251 ) ;
#183 = APPROVAL_PERSON_ORGANIZATION ( #78, #153, #85 ) ;
#184 = COORDINATED_UNIVERSAL_TIME_OFFSET ( 1, 0, .AHEAD. ) ;
#185 = CARTESIAN_POINT ( 'NONE',  ( 0.000000000000000000, 0.000000000000000000, 1.500000000000000000 ) ) ;
#186 = EDGE_CURVE ( 'NONE', #98, #34, #53, .T. ) ;
#187 = FACE_BOUND ( 'NONE', #51, .T. ) ;
#188 = VERTEX_POINT ( 'NONE', #189 ) ;
#189 = CARTESIAN_POINT ( 'NONE',  ( 2.000000000000000000, 2.449293598294706414E-16, 1.500000000000000000 ) ) ;
#190 = ORIENTED_EDGE ( 'NONE', *, *, #146, .T. ) ;
#191 = CC_DESIGN_PERSON_AND_ORGANIZATION_ASSIGNMENT ( #241, #62, ( #88 ) ) ;
#192 = CC_DESIGN_SECURITY_CLASSIFICATION ( #88, ( #136 ) ) ;
#193 = EDGE_LOOP ( 'NONE', ( #61, #36 ) ) ;
#194 =( LENGTH_UNIT ( ) NAMED_UNIT ( * ) SI_UNIT ( .MILLI., .METRE. ) );
#195 = VECTOR ( 'NONE', #31, 1000.000000000000000 ) ;
#196 = CC_DESIGN_DATE_AND_TIME_ASSIGNMENT ( #249, #205, ( #88 ) ) ;
#197 = PERSON_AND_ORGANIZATION ( #213, #104 ) ;
#198 = DIRECTION ( 'NONE',  ( -1.000000000000000000, 0.000000000000000000, 0.000000000000000000 ) ) ;
#199 = DIRECTION ( 'NONE',  ( 0.000000000000000000, 0.000000000000000000, 1.000000000000000000 ) ) ;
#200 = AXIS2_PLACEMENT_3D ( 'NONE', #108, #125, #198 ) ;
#201 = COORDINATED_UNIVERSAL_TIME_OFFSET ( 1, 0, .AHEAD. ) ;
#202 = CARTESIAN_POINT ( 'NONE',  ( 0.9499999999999999556, 1.163414459189985682E-16, 160.0000000000000000 ) ) ;
#203 = DIRECTION ( 'NONE',  ( 0.000000000000000000, 0.000000000000000000, 1.000000000000000000 ) ) ;
#204 = APPROVAL_PERSON_ORGANIZATION ( #156, #14, #177 ) ;
#205 = DATE_TIME_ROLE ( 'classification_date' ) ;
#206 = EDGE_CURVE ( 'NONE', #188, #34, #11, .T. ) ;
#207 = DIRECTION ( 'NONE',  ( 1.000000000000000000, 0.000000000000000000, 0.000000000000000000 ) ) ;
#208 = PRODUCT_DEFINITION_SHAPE ( 'NONE', 'NONE',  #79 ) ;
#209 = ADVANCED_FACE ( 'NONE', ( #113 ), #91, .F. ) ;
#210 = CARTESIAN_POINT ( 'NONE',  ( 0.000000000000000000, 0.000000000000000000, 1.500000000000000000 ) ) ;
#211 = CIRCLE ( 'NONE', #57, 0.9499999999999999556 ) ;
#212 = PLANE ( 'NONE',  #103 ) ;
#213 = PERSON ( 'NEURÈENÝ', 'NEURÈENÝ', 'NEURÈENÝ', ('NEURÈENÝ'), ('NEURÈENÝ'), ('NEURÈENÝ') ) ;
#214 =( GEOMETRIC_REPRESENTATION_CONTEXT ( 3 ) GLOBAL_UNCERTAINTY_ASSIGNED_CONTEXT ( ( #232 ) ) GLOBAL_UNIT_ASSIGNED_CONTEXT ( ( #194, #154, #23 ) ) REPRESENTATION_CONTEXT ( 'NONE', 'WORKASPACE' ) );
#215 = CC_DESIGN_PERSON_AND_ORGANIZATION_ASSIGNMENT ( #197, #239, ( #79 ) ) ;
#216 = DIRECTION ( 'NONE',  ( 0.000000000000000000, 0.000000000000000000, 1.000000000000000000 ) ) ;
#217 = ORIENTED_EDGE ( 'NONE', *, *, #146, .F. ) ;
#218 = CARTESIAN_POINT ( 'NONE',  ( -0.9499999999999999556, 0.000000000000000000, 1.500000000000000000 ) ) ;
#219 = AXIS2_PLACEMENT_3D ( 'NONE', #106, #80, #176 ) ;
#220 = DATE_AND_TIME ( #244, #252 ) ;
#221 = DIRECTION ( 'NONE',  ( -1.000000000000000000, 0.000000000000000000, 0.000000000000000000 ) ) ;
#222 = DIRECTION ( 'NONE',  ( 1.000000000000000000, 0.000000000000000000, 0.000000000000000000 ) ) ;
#223 = DIRECTION ( 'NONE',  ( 0.000000000000000000, 0.000000000000000000, 1.000000000000000000 ) ) ;
#224 = PRODUCT_RELATED_PRODUCT_CATEGORY ( 'detail', '', ( #64 ) ) ;
#225 = DIRECTION ( 'NONE',  ( 1.000000000000000000, 0.000000000000000000, 0.000000000000000000 ) ) ;
#226 = CIRCLE ( 'NONE', #18, 0.9499999999999999556 ) ;
#227 = AXIS2_PLACEMENT_3D ( 'NONE', #131, #117, #222 ) ;
#228 = ORIENTED_EDGE ( 'NONE', *, *, #54, .T. ) ;
#229 = APPLICATION_CONTEXT ( 'configuration controlled 3d designs of mechanical parts and assemblies' ) ;
#230 = EDGE_CURVE ( 'NONE', #92, #152, #211, .T. ) ;
#231 = FACE_OUTER_BOUND ( 'NONE', #151, .T. ) ;
#232 = UNCERTAINTY_MEASURE_WITH_UNIT (LENGTH_MEASURE( 1.000000000000000082E-05 ), #194, 'distance_accuracy_value', 'NONE');
#233 = APPLICATION_PROTOCOL_DEFINITION ( 'international standard', 'config_control_design', 1994, #229 ) ;
#234 = APPROVAL ( #69, 'NEURÈENÝ' ) ;
#235 = ORIENTED_EDGE ( 'NONE', *, *, #100, .F. ) ;
#236 = APPROVAL_DATE_TIME ( #107, #153 ) ;
#237 = CARTESIAN_POINT ( 'NONE',  ( 0.000000000000000000, 0.000000000000000000, 1.500000000000000000 ) ) ;
#238 = LOCAL_TIME ( 13, 53, 49.00000000000000000, #30 ) ;
#239 = PERSON_AND_ORGANIZATION_ROLE ( 'creator' ) ;
#240 = CARTESIAN_POINT ( 'NONE',  ( -0.9499999999999999556, 0.000000000000000000, 160.0000000000000000 ) ) ;
#241 = PERSON_AND_ORGANIZATION ( #213, #104 ) ;
#242 = DIRECTION ( 'NONE',  ( 1.000000000000000000, 0.000000000000000000, -0.000000000000000000 ) ) ;
#243 = CIRCLE ( 'NONE', #132, 0.9499999999999999556 ) ;
#244 = CALENDAR_DATE ( 2023, 12, 2 ) ;
#245 = CARTESIAN_POINT ( 'NONE',  ( 0.000000000000000000, 0.000000000000000000, 160.0000000000000000 ) ) ;
#246 = PLANE ( 'NONE',  #182 ) ;
#247 = APPLICATION_CONTEXT ( 'configuration controlled 3d designs of mechanical parts and assemblies' ) ;
#248 = CIRCLE ( 'NONE', #142, 0.9499999999999999556 ) ;
#249 = DATE_AND_TIME ( #7, #238 ) ;
#250 = DIRECTION ( 'NONE',  ( -0.000000000000000000, -0.000000000000000000, -1.000000000000000000 ) ) ;
#251 = DIRECTION ( 'NONE',  ( 1.000000000000000000, 0.000000000000000000, -0.000000000000000000 ) ) ;
#252 = LOCAL_TIME ( 13, 53, 49.00000000000000000, #201 ) ;
#253 = DESIGN_CONTEXT ( 'detailed design', #247, 'design' ) ;
#254 = EDGE_CURVE ( 'NONE', #188, #118, #82, .T. ) ;
#255 = EDGE_LOOP ( 'NONE', ( #55, #75, #190, #39 ) ) ;
ENDSEC;
END-ISO-10303-21;
