ISO-10303-21;
HEADER;
FILE_DESCRIPTION (( 'STEP AP203' ),
    '1' );
FILE_NAME ('2688.STEP',
    '2023-02-12T12:56:48',
    ( '' ),
    ( '' ),
    'SwSTEP 2.0',
    'SolidWorks 2019',
    '' );
FILE_SCHEMA (( 'CONFIG_CONTROL_DESIGN' ));
ENDSEC;

DATA;
#1 = CALENDAR_DATE ( 2023, 12, 2 ) ;
#2 = COORDINATED_UNIVERSAL_TIME_OFFSET ( 1, 0, .AHEAD. ) ;
#3 = EDGE_LOOP ( 'NONE', ( #40, #122, #82, #84 ) ) ;
#4 = APPROVAL_PERSON_ORGANIZATION ( #19, #187, #205 ) ;
#5 = EDGE_CURVE ( 'NONE', #214, #20, #250, .T. ) ;
#6 = AXIS2_PLACEMENT_3D ( 'NONE', #235, #165, #49 ) ;
#7 = DIRECTION ( 'NONE',  ( 0.000000000000000000, 0.000000000000000000, 1.000000000000000000 ) ) ;
#8 = AXIS2_PLACEMENT_3D ( 'NONE', #230, #167, #29 ) ;
#9 = DIRECTION ( 'NONE',  ( 0.000000000000000000, 0.000000000000000000, 1.000000000000000000 ) ) ;
#10 = FACE_OUTER_BOUND ( 'NONE', #209, .T. ) ;
#11 = CARTESIAN_POINT ( 'NONE',  ( 0.000000000000000000, 0.000000000000000000, 100.0000000000000000 ) ) ;
#12 = PRODUCT ( '2688', '2688', '', ( #74 ) ) ;
#13 = DIRECTION ( 'NONE',  ( -0.000000000000000000, -0.000000000000000000, -1.000000000000000000 ) ) ;
#14 = CARTESIAN_POINT ( 'NONE',  ( 0.000000000000000000, 0.000000000000000000, 1.500000000000000000 ) ) ;
#15 = DIRECTION ( 'NONE',  ( 0.000000000000000000, 0.000000000000000000, 1.000000000000000000 ) ) ;
#16 = DIRECTION ( 'NONE',  ( 0.000000000000000000, 0.000000000000000000, 1.000000000000000000 ) ) ;
#17 = EDGE_CURVE ( 'NONE', #20, #214, #173, .T. ) ;
#18 = DIRECTION ( 'NONE',  ( 1.000000000000000000, 0.000000000000000000, 0.000000000000000000 ) ) ;
#19 = PERSON_AND_ORGANIZATION ( #252, #159 ) ;
#20 = VERTEX_POINT ( 'NONE', #109 ) ;
#21 = APPROVAL_STATUS ( 'not_yet_approved' ) ;
#22 = ORIENTED_EDGE ( 'NONE', *, *, #234, .F. ) ;
#23 = APPROVAL ( #96, 'NEURÈENÝ' ) ;
#24 = LOCAL_TIME ( 13, 56, 48.00000000000000000, #129 ) ;
#25 = VERTEX_POINT ( 'NONE', #216 ) ;
#26 = DATE_AND_TIME ( #119, #56 ) ;
#27 = EDGE_LOOP ( 'NONE', ( #98, #204, #160, #117 ) ) ;
#28 = EDGE_CURVE ( 'NONE', #226, #62, #156, .T. ) ;
#29 = DIRECTION ( 'NONE',  ( -1.000000000000000000, 0.000000000000000000, 0.000000000000000000 ) ) ;
#30 = CARTESIAN_POINT ( 'NONE',  ( 0.000000000000000000, 0.000000000000000000, 100.0000000000000000 ) ) ;
#31 = DIRECTION ( 'NONE',  ( 1.000000000000000000, 0.000000000000000000, 0.000000000000000000 ) ) ;
#32 = FACE_OUTER_BOUND ( 'NONE', #227, .T. ) ;
#33 = CARTESIAN_POINT ( 'NONE',  ( -1.500000000000000222, 0.000000000000000000, 1.500000000000000000 ) ) ;
#34 =( NAMED_UNIT ( * ) SI_UNIT ( $, .STERADIAN. ) SOLID_ANGLE_UNIT ( ) );
#35 = APPLICATION_CONTEXT ( 'configuration controlled 3d designs of mechanical parts and assemblies' ) ;
#36 = LINE ( 'NONE', #113, #237 ) ;
#37 = DIRECTION ( 'NONE',  ( 0.000000000000000000, 0.000000000000000000, 1.000000000000000000 ) ) ;
#38 = SECURITY_CLASSIFICATION ( '', '', #141 ) ;
#39 = PERSON_AND_ORGANIZATION ( #252, #159 ) ;
#40 = ORIENTED_EDGE ( 'NONE', *, *, #28, .F. ) ;
#41 = EDGE_CURVE ( 'NONE', #226, #25, #229, .T. ) ;
#42 = ORIENTED_EDGE ( 'NONE', *, *, #63, .T. ) ;
#43 = APPROVAL_DATE_TIME ( #225, #130 ) ;
#44 = ADVANCED_FACE ( 'NONE', ( #233 ), #126, .T. ) ;
#45 = ORIENTED_EDGE ( 'NONE', *, *, #73, .T. ) ;
#46 = DIRECTION ( 'NONE',  ( 1.000000000000000000, 0.000000000000000000, 0.000000000000000000 ) ) ;
#47 = APPLICATION_CONTEXT ( 'configuration controlled 3d designs of mechanical parts and assemblies' ) ;
#48 = CARTESIAN_POINT ( 'NONE',  ( 0.000000000000000000, 0.000000000000000000, 100.0000000000000000 ) ) ;
#49 = DIRECTION ( 'NONE',  ( 1.000000000000000000, 0.000000000000000000, 0.000000000000000000 ) ) ;
#50 = CIRCLE ( 'NONE', #172, 0.7500000000000001110 ) ;
#51 = CARTESIAN_POINT ( 'NONE',  ( 0.000000000000000000, 0.000000000000000000, 1.500000000000000000 ) ) ;
#52 = DIRECTION ( 'NONE',  ( -1.000000000000000000, 0.000000000000000000, 0.000000000000000000 ) ) ;
#53 = PERSON_AND_ORGANIZATION ( #252, #159 ) ;
#54 = DATE_AND_TIME ( #239, #125 ) ;
#55 = DIRECTION ( 'NONE',  ( 1.000000000000000000, 0.000000000000000000, 0.000000000000000000 ) ) ;
#56 = LOCAL_TIME ( 13, 56, 48.00000000000000000, #116 ) ;
#57 = DIRECTION ( 'NONE',  ( 1.000000000000000000, 0.000000000000000000, 0.000000000000000000 ) ) ;
#58 = EDGE_LOOP ( 'NONE', ( #180, #140, #157, #118 ) ) ;
#59 = EDGE_CURVE ( 'NONE', #200, #20, #93, .T. ) ;
#60 = CIRCLE ( 'NONE', #242, 1.500000000000000222 ) ;
#61 = COORDINATED_UNIVERSAL_TIME_OFFSET ( 1, 0, .AHEAD. ) ;
#62 = VERTEX_POINT ( 'NONE', #169 ) ;
#63 = EDGE_CURVE ( 'NONE', #99, #200, #232, .T. ) ;
#64 = PERSON_AND_ORGANIZATION_ROLE ( 'creator' ) ;
#65 = DIRECTION ( 'NONE',  ( 0.000000000000000000, 0.000000000000000000, 1.000000000000000000 ) ) ;
#66 = ORIENTED_EDGE ( 'NONE', *, *, #59, .T. ) ;
#67 = DIRECTION ( 'NONE',  ( 1.000000000000000000, 0.000000000000000000, 0.000000000000000000 ) ) ;
#68 = ADVANCED_FACE ( 'NONE', ( #124 ), #249, .T. ) ;
#69 = CYLINDRICAL_SURFACE ( 'NONE', #212, 1.500000000000000222 ) ;
#70 = CIRCLE ( 'NONE', #102, 0.7500000000000001110 ) ;
#71 = PLANE ( 'NONE',  #105 ) ;
#72 = EDGE_CURVE ( 'NONE', #25, #142, #70, .T. ) ;
#73 = EDGE_CURVE ( 'NONE', #62, #226, #248, .T. ) ;
#74 = MECHANICAL_CONTEXT ( 'NONE', #35, 'mechanical' ) ;
#75 = APPROVAL_PERSON_ORGANIZATION ( #203, #130, #176 ) ;
#76 = PERSON_AND_ORGANIZATION_ROLE ( 'design_owner' ) ;
#77 = DIRECTION ( 'NONE',  ( -0.000000000000000000, -0.000000000000000000, -1.000000000000000000 ) ) ;
#78 = CARTESIAN_POINT ( 'NONE',  ( 0.000000000000000000, 0.000000000000000000, 100.0000000000000000 ) ) ;
#79 = PERSON_AND_ORGANIZATION_ROLE ( 'classification_officer' ) ;
#80 = DATE_AND_TIME ( #1, #182 ) ;
#81 = PERSON_AND_ORGANIZATION ( #252, #159 ) ;
#82 = ORIENTED_EDGE ( 'NONE', *, *, #72, .T. ) ;
#83 = VECTOR ( 'NONE', #91, 1000.000000000000000 ) ;
#84 = ORIENTED_EDGE ( 'NONE', *, *, #158, .F. ) ;
#85 = ORIENTED_EDGE ( 'NONE', *, *, #88, .F. ) ;
#86 = AXIS2_PLACEMENT_3D ( 'NONE', #78, #37, #194 ) ;
#87 = PLANE ( 'NONE',  #86 ) ;
#88 = EDGE_CURVE ( 'NONE', #99, #214, #123, .T. ) ;
#89 = DIRECTION ( 'NONE',  ( -1.000000000000000000, 0.000000000000000000, 0.000000000000000000 ) ) ;
#90 = CYLINDRICAL_SURFACE ( 'NONE', #8, 1.500000000000000222 ) ;
#91 = DIRECTION ( 'NONE',  ( -0.000000000000000000, -0.000000000000000000, -1.000000000000000000 ) ) ;
#92 = CC_DESIGN_PERSON_AND_ORGANIZATION_ASSIGNMENT ( #241, #181, ( #114 ) ) ;
#93 = LINE ( 'NONE', #33, #83 ) ;
#94 = APPROVAL_ROLE ( '' ) ;
#95 = DIRECTION ( 'NONE',  ( 0.000000000000000000, 0.000000000000000000, 1.000000000000000000 ) ) ;
#96 = APPROVAL_STATUS ( 'not_yet_approved' ) ;
#97 = CARTESIAN_POINT ( 'NONE',  ( 1.500000000000000222, 1.836970198721030181E-16, 0.000000000000000000 ) ) ;
#98 = ORIENTED_EDGE ( 'NONE', *, *, #41, .F. ) ;
#99 = VERTEX_POINT ( 'NONE', #103 ) ;
#100 = ORIENTED_EDGE ( 'NONE', *, *, #234, .T. ) ;
#101 = CALENDAR_DATE ( 2023, 12, 2 ) ;
#102 = AXIS2_PLACEMENT_3D ( 'NONE', #245, #211, #67 ) ;
#103 = CARTESIAN_POINT ( 'NONE',  ( 1.500000000000000222, 1.836970198721030181E-16, 1.500000000000000000 ) ) ;
#104 = ADVANCED_FACE ( 'NONE', ( #246, #145 ), #71, .T. ) ;
#105 = AXIS2_PLACEMENT_3D ( 'NONE', #210, #188, #128 ) ;
#106 = DIRECTION ( 'NONE',  ( 0.000000000000000000, 0.000000000000000000, 1.000000000000000000 ) ) ;
#107 = CARTESIAN_POINT ( 'NONE',  ( 0.000000000000000000, 0.000000000000000000, 0.000000000000000000 ) ) ;
#108 = PRODUCT_DEFINITION_SHAPE ( 'NONE', 'NONE',  #193 ) ;
#109 = CARTESIAN_POINT ( 'NONE',  ( -1.500000000000000222, 0.000000000000000000, 0.000000000000000000 ) ) ;
#110 = DIRECTION ( 'NONE',  ( -0.000000000000000000, -0.000000000000000000, -1.000000000000000000 ) ) ;
#111 = CARTESIAN_POINT ( 'NONE',  ( -1.500000000000000222, 0.000000000000000000, 1.500000000000000000 ) ) ;
#112 = CALENDAR_DATE ( 2023, 12, 2 ) ;
#113 = CARTESIAN_POINT ( 'NONE',  ( -0.7500000000000001110, 0.000000000000000000, 100.0000000000000000 ) ) ;
#114 = PRODUCT_DEFINITION_FORMATION_WITH_SPECIFIED_SOURCE ( 'LIBOVOLNÝ', '', #12, .NOT_KNOWN. ) ;
#115 = ADVANCED_FACE ( 'NONE', ( #10 ), #90, .T. ) ;
#116 = COORDINATED_UNIVERSAL_TIME_OFFSET ( 1, 0, .AHEAD. ) ;
#117 = ORIENTED_EDGE ( 'NONE', *, *, #183, .T. ) ;
#118 = ORIENTED_EDGE ( 'NONE', *, *, #59, .F. ) ;
#119 = CALENDAR_DATE ( 2023, 12, 2 ) ;
#120 = ORIENTED_EDGE ( 'NONE', *, *, #183, .F. ) ;
#121 = DATE_TIME_ROLE ( 'classification_date' ) ;
#122 = ORIENTED_EDGE ( 'NONE', *, *, #41, .T. ) ;
#123 = LINE ( 'NONE', #186, #191 ) ;
#124 = FACE_OUTER_BOUND ( 'NONE', #3, .T. ) ;
#125 = LOCAL_TIME ( 13, 56, 48.00000000000000000, #221 ) ;
#126 = CYLINDRICAL_SURFACE ( 'NONE', #217, 0.7500000000000001110 ) ;
#127 = DIRECTION ( 'NONE',  ( -1.000000000000000000, 0.000000000000000000, 0.000000000000000000 ) ) ;
#128 = DIRECTION ( 'NONE',  ( 1.000000000000000000, 0.000000000000000000, -0.000000000000000000 ) ) ;
#129 = COORDINATED_UNIVERSAL_TIME_OFFSET ( 1, 0, .AHEAD. ) ;
#130 = APPROVAL ( #21, 'NEURÈENÝ' ) ;
#131 = DATE_TIME_ROLE ( 'creation_date' ) ;
#132 = DIRECTION ( 'NONE',  ( 0.000000000000000000, 0.000000000000000000, 1.000000000000000000 ) ) ;
#133 = DESIGN_CONTEXT ( 'detailed design', #47, 'design' ) ;
#134 = VECTOR ( 'NONE', #148, 1000.000000000000000 ) ;
#135 = ADVANCED_FACE ( 'NONE', ( #184 ), #69, .T. ) ;
#136 = PERSON_AND_ORGANIZATION ( #252, #159 ) ;
#137 = ORIENTED_EDGE ( 'NONE', *, *, #72, .F. ) ;
#138 = PRODUCT_RELATED_PRODUCT_CATEGORY ( 'detail', '', ( #12 ) ) ;
#139 = SHAPE_DEFINITION_REPRESENTATION ( #108, #224 ) ;
#140 = ORIENTED_EDGE ( 'NONE', *, *, #88, .T. ) ;
#141 = SECURITY_CLASSIFICATION_LEVEL ( 'unclassified' ) ;
#142 = VERTEX_POINT ( 'NONE', #215 ) ;
#143 = CC_DESIGN_APPROVAL ( #130, ( #114 ) ) ;
#144 = CC_DESIGN_PERSON_AND_ORGANIZATION_ASSIGNMENT ( #39, #79, ( #38 ) ) ;
#145 = FACE_OUTER_BOUND ( 'NONE', #247, .T. ) ;
#146 = DIRECTION ( 'NONE',  ( -0.000000000000000000, -0.000000000000000000, -1.000000000000000000 ) ) ;
#147 = AXIS2_PLACEMENT_3D ( 'NONE', #107, #9, #228 ) ;
#148 = DIRECTION ( 'NONE',  ( -0.000000000000000000, -0.000000000000000000, -1.000000000000000000 ) ) ;
#149 = DIRECTION ( 'NONE',  ( -0.000000000000000000, -0.000000000000000000, -1.000000000000000000 ) ) ;
#150 = UNCERTAINTY_MEASURE_WITH_UNIT (LENGTH_MEASURE( 1.000000000000000082E-05 ), #198, 'distance_accuracy_value', 'NONE');
#151 = PLANE ( 'NONE',  #185 ) ;
#152 = AXIS2_PLACEMENT_3D ( 'NONE', #218, #132, #55 ) ;
#153 = DATE_AND_TIME ( #112, #24 ) ;
#154 = ADVANCED_FACE ( 'NONE', ( #32 ), #87, .T. ) ;
#155 = CARTESIAN_POINT ( 'NONE',  ( 0.7500000000000001110, 9.184850993605150903E-17, 100.0000000000000000 ) ) ;
#156 = CIRCLE ( 'NONE', #197, 0.7500000000000001110 ) ;
#157 = ORIENTED_EDGE ( 'NONE', *, *, #5, .T. ) ;
#158 = EDGE_CURVE ( 'NONE', #62, #142, #36, .T. ) ;
#159 = ORGANIZATION ( 'NEURÈENÝ', 'NEURÈENÝ', '' ) ;
#160 = ORIENTED_EDGE ( 'NONE', *, *, #158, .T. ) ;
#161 = ORIENTED_EDGE ( 'NONE', *, *, #17, .F. ) ;
#162 = ORIENTED_EDGE ( 'NONE', *, *, #5, .F. ) ;
#163 = AXIS2_PLACEMENT_3D ( 'NONE', #164, #65, #46 ) ;
#164 = CARTESIAN_POINT ( 'NONE',  ( 0.000000000000000000, 0.000000000000000000, 1.500000000000000000 ) ) ;
#165 = DIRECTION ( 'NONE',  ( 0.000000000000000000, 0.000000000000000000, 1.000000000000000000 ) ) ;
#166 = MANIFOLD_SOLID_BREP ( 'Pøidat vysunutím3', #223 ) ;
#167 = DIRECTION ( 'NONE',  ( -0.000000000000000000, -0.000000000000000000, -1.000000000000000000 ) ) ;
#168 = LOCAL_TIME ( 13, 56, 48.00000000000000000, #61 ) ;
#169 = CARTESIAN_POINT ( 'NONE',  ( -0.7500000000000001110, 0.000000000000000000, 100.0000000000000000 ) ) ;
#170 = CARTESIAN_POINT ( 'NONE',  ( 0.7500000000000001110, 9.184850993605150903E-17, 100.0000000000000000 ) ) ;
#171 =( NAMED_UNIT ( * ) PLANE_ANGLE_UNIT ( ) SI_UNIT ( $, .RADIAN. ) );
#172 = AXIS2_PLACEMENT_3D ( 'NONE', #195, #16, #18 ) ;
#173 = CIRCLE ( 'NONE', #147, 1.500000000000000222 ) ;
#174 = APPROVAL_DATE_TIME ( #153, #23 ) ;
#175 = APPROVAL_DATE_TIME ( #80, #187 ) ;
#176 = APPROVAL_ROLE ( '' ) ;
#177 = EDGE_LOOP ( 'NONE', ( #120, #137 ) ) ;
#178 = CC_DESIGN_DATE_AND_TIME_ASSIGNMENT ( #54, #131, ( #193 ) ) ;
#179 = APPROVAL_STATUS ( 'not_yet_approved' ) ;
#180 = ORIENTED_EDGE ( 'NONE', *, *, #63, .F. ) ;
#181 = PERSON_AND_ORGANIZATION_ROLE ( 'design_supplier' ) ;
#182 = LOCAL_TIME ( 13, 56, 48.00000000000000000, #2 ) ;
#183 = EDGE_CURVE ( 'NONE', #142, #25, #50, .T. ) ;
#184 = FACE_OUTER_BOUND ( 'NONE', #58, .T. ) ;
#185 = AXIS2_PLACEMENT_3D ( 'NONE', #253, #15, #236 ) ;
#186 = CARTESIAN_POINT ( 'NONE',  ( 1.500000000000000222, 1.836970198721030181E-16, 1.500000000000000000 ) ) ;
#187 = APPROVAL ( #179, 'NEURÈENÝ' ) ;
#188 = DIRECTION ( 'NONE',  ( 0.000000000000000000, 0.000000000000000000, 1.000000000000000000 ) ) ;
#189 = DIRECTION ( 'NONE',  ( 1.000000000000000000, 0.000000000000000000, 0.000000000000000000 ) ) ;
#190 = CC_DESIGN_APPROVAL ( #187, ( #38 ) ) ;
#191 = VECTOR ( 'NONE', #13, 1000.000000000000000 ) ;
#192 = CARTESIAN_POINT ( 'NONE',  ( 0.000000000000000000, 0.000000000000000000, 100.0000000000000000 ) ) ;
#193 = PRODUCT_DEFINITION ( 'NEZNÁMÝ', '', #114, #133 ) ;
#194 = DIRECTION ( 'NONE',  ( 1.000000000000000000, 0.000000000000000000, -0.000000000000000000 ) ) ;
#195 = CARTESIAN_POINT ( 'NONE',  ( 0.000000000000000000, 0.000000000000000000, 1.500000000000000000 ) ) ;
#196 = FACE_OUTER_BOUND ( 'NONE', #206, .T. ) ;
#197 = AXIS2_PLACEMENT_3D ( 'NONE', #11, #7, #189 ) ;
#198 =( LENGTH_UNIT ( ) NAMED_UNIT ( * ) SI_UNIT ( .MILLI., .METRE. ) );
#199 = APPLICATION_PROTOCOL_DEFINITION ( 'international standard', 'config_control_design', 1994, #47 ) ;
#200 = VERTEX_POINT ( 'NONE', #111 ) ;
#201 = AXIS2_PLACEMENT_3D ( 'NONE', #192, #146, #89 ) ;
#202 = ADVANCED_FACE ( 'NONE', ( #196 ), #151, .F. ) ;
#203 = PERSON_AND_ORGANIZATION ( #252, #159 ) ;
#204 = ORIENTED_EDGE ( 'NONE', *, *, #73, .F. ) ;
#205 = APPROVAL_ROLE ( '' ) ;
#206 = EDGE_LOOP ( 'NONE', ( #161, #162 ) ) ;
#207 = CC_DESIGN_SECURITY_CLASSIFICATION ( #38, ( #114 ) ) ;
#208 = AXIS2_PLACEMENT_3D ( 'NONE', #30, #106, #31 ) ;
#209 = EDGE_LOOP ( 'NONE', ( #85, #22, #66, #243 ) ) ;
#210 = CARTESIAN_POINT ( 'NONE',  ( 0.000000000000000000, 0.000000000000000000, 1.500000000000000000 ) ) ;
#211 = DIRECTION ( 'NONE',  ( 0.000000000000000000, 0.000000000000000000, 1.000000000000000000 ) ) ;
#212 = AXIS2_PLACEMENT_3D ( 'NONE', #51, #149, #127 ) ;
#213 = CC_DESIGN_PERSON_AND_ORGANIZATION_ASSIGNMENT ( #81, #64, ( #114 ) ) ;
#214 = VERTEX_POINT ( 'NONE', #97 ) ;
#215 = CARTESIAN_POINT ( 'NONE',  ( -0.7500000000000001110, 0.000000000000000000, 1.500000000000000000 ) ) ;
#216 = CARTESIAN_POINT ( 'NONE',  ( 0.7500000000000001110, 9.184850993605150903E-17, 1.500000000000000000 ) ) ;
#217 = AXIS2_PLACEMENT_3D ( 'NONE', #48, #110, #52 ) ;
#218 = CARTESIAN_POINT ( 'NONE',  ( 0.000000000000000000, 0.000000000000000000, 0.000000000000000000 ) ) ;
#219 = APPLICATION_PROTOCOL_DEFINITION ( 'international standard', 'config_control_design', 1994, #35 ) ;
#220 =( GEOMETRIC_REPRESENTATION_CONTEXT ( 3 ) GLOBAL_UNCERTAINTY_ASSIGNED_CONTEXT ( ( #150 ) ) GLOBAL_UNIT_ASSIGNED_CONTEXT ( ( #198, #171, #34 ) ) REPRESENTATION_CONTEXT ( 'NONE', 'WORKASPACE' ) );
#221 = COORDINATED_UNIVERSAL_TIME_OFFSET ( 1, 0, .AHEAD. ) ;
#222 = ORIENTED_EDGE ( 'NONE', *, *, #28, .T. ) ;
#223 = CLOSED_SHELL ( 'NONE', ( #68, #135, #115, #104, #202, #44, #154 ) ) ;
#224 = ADVANCED_BREP_SHAPE_REPRESENTATION ( '2688', ( #166, #152 ), #220 ) ;
#225 = DATE_AND_TIME ( #101, #168 ) ;
#226 = VERTEX_POINT ( 'NONE', #155 ) ;
#227 = EDGE_LOOP ( 'NONE', ( #45, #222 ) ) ;
#228 = DIRECTION ( 'NONE',  ( 1.000000000000000000, 0.000000000000000000, 0.000000000000000000 ) ) ;
#229 = LINE ( 'NONE', #170, #134 ) ;
#230 = CARTESIAN_POINT ( 'NONE',  ( 0.000000000000000000, 0.000000000000000000, 1.500000000000000000 ) ) ;
#231 = APPROVAL_PERSON_ORGANIZATION ( #53, #23, #94 ) ;
#232 = CIRCLE ( 'NONE', #163, 1.500000000000000222 ) ;
#233 = FACE_OUTER_BOUND ( 'NONE', #27, .T. ) ;
#234 = EDGE_CURVE ( 'NONE', #200, #99, #60, .T. ) ;
#235 = CARTESIAN_POINT ( 'NONE',  ( 0.000000000000000000, 0.000000000000000000, 0.000000000000000000 ) ) ;
#236 = DIRECTION ( 'NONE',  ( 1.000000000000000000, 0.000000000000000000, -0.000000000000000000 ) ) ;
#237 = VECTOR ( 'NONE', #77, 1000.000000000000000 ) ;
#238 = PERSON_AND_ORGANIZATION ( #252, #159 ) ;
#239 = CALENDAR_DATE ( 2023, 12, 2 ) ;
#240 = CC_DESIGN_DATE_AND_TIME_ASSIGNMENT ( #26, #121, ( #38 ) ) ;
#241 = PERSON_AND_ORGANIZATION ( #252, #159 ) ;
#242 = AXIS2_PLACEMENT_3D ( 'NONE', #14, #95, #57 ) ;
#243 = ORIENTED_EDGE ( 'NONE', *, *, #17, .T. ) ;
#244 = CC_DESIGN_APPROVAL ( #23, ( #193 ) ) ;
#245 = CARTESIAN_POINT ( 'NONE',  ( 0.000000000000000000, 0.000000000000000000, 1.500000000000000000 ) ) ;
#246 = FACE_BOUND ( 'NONE', #177, .T. ) ;
#247 = EDGE_LOOP ( 'NONE', ( #100, #42 ) ) ;
#248 = CIRCLE ( 'NONE', #208, 0.7500000000000001110 ) ;
#249 = CYLINDRICAL_SURFACE ( 'NONE', #201, 0.7500000000000001110 ) ;
#250 = CIRCLE ( 'NONE', #6, 1.500000000000000222 ) ;
#251 = CC_DESIGN_PERSON_AND_ORGANIZATION_ASSIGNMENT ( #238, #76, ( #12 ) ) ;
#252 = PERSON ( 'NEURÈENÝ', 'NEURÈENÝ', 'NEURÈENÝ', ('NEURÈENÝ'), ('NEURÈENÝ'), ('NEURÈENÝ') ) ;
#253 = CARTESIAN_POINT ( 'NONE',  ( 0.000000000000000000, 0.000000000000000000, 0.000000000000000000 ) ) ;
#254 = PERSON_AND_ORGANIZATION_ROLE ( 'creator' ) ;
#255 = CC_DESIGN_PERSON_AND_ORGANIZATION_ASSIGNMENT ( #136, #254, ( #193 ) ) ;
ENDSEC;
END-ISO-10303-21;
