ISO-10303-21;
HEADER;
FILE_DESCRIPTION (( 'STEP AP203' ),
    '1' );
FILE_NAME ('767f.STEP',
    '2023-02-12T12:06:44',
    ( '' ),
    ( '' ),
    'SwSTEP 2.0',
    'SolidWorks 2019',
    '' );
FILE_SCHEMA (( 'CONFIG_CONTROL_DESIGN' ));
ENDSEC;

DATA;
#1 = DIRECTION ( 'NONE',  ( 1.000000000000000000, 0.000000000000000000, -0.000000000000000000 ) ) ;
#2 = AXIS2_PLACEMENT_3D ( 'NONE', #167, #89, #224 ) ;
#3 = AXIS2_PLACEMENT_3D ( 'NONE', #49, #240, #204 ) ;
#4 = CARTESIAN_POINT ( 'NONE',  ( 0.000000000000000000, 0.000000000000000000, 5.000000000000000000 ) ) ;
#5 = DATE_AND_TIME ( #185, #63 ) ;
#6 = PRODUCT_DEFINITION ( 'NEZNÁMÝ', '', #54, #164 ) ;
#7 = DIRECTION ( 'NONE',  ( 0.000000000000000000, 0.000000000000000000, 1.000000000000000000 ) ) ;
#8 = DIRECTION ( 'NONE',  ( 1.000000000000000000, 0.000000000000000000, 0.000000000000000000 ) ) ;
#9 = AXIS2_PLACEMENT_3D ( 'NONE', #56, #120, #101 ) ;
#10 = ORIENTED_EDGE ( 'NONE', *, *, #28, .T. ) ;
#11 = EDGE_CURVE ( 'NONE', #226, #171, #231, .T. ) ;
#12 = ORIENTED_EDGE ( 'NONE', *, *, #102, .T. ) ;
#13 = DATE_AND_TIME ( #248, #202 ) ;
#14 = ORIENTED_EDGE ( 'NONE', *, *, #251, .F. ) ;
#15 = DIRECTION ( 'NONE',  ( 0.000000000000000000, 0.000000000000000000, 1.000000000000000000 ) ) ;
#16 = ORIENTED_EDGE ( 'NONE', *, *, #146, .F. ) ;
#17 = EDGE_CURVE ( 'NONE', #209, #226, #99, .T. ) ;
#18 = LINE ( 'NONE', #82, #228 ) ;
#19 = CARTESIAN_POINT ( 'NONE',  ( 0.000000000000000000, 0.000000000000000000, 800.0000000000000000 ) ) ;
#20 = VECTOR ( 'NONE', #253, 1000.000000000000000 ) ;
#21 = CC_DESIGN_APPROVAL ( #159, ( #100 ) ) ;
#22 = CARTESIAN_POINT ( 'NONE',  ( 0.000000000000000000, 0.000000000000000000, 800.0000000000000000 ) ) ;
#23 = DIRECTION ( 'NONE',  ( 1.000000000000000000, 0.000000000000000000, 0.000000000000000000 ) ) ;
#24 = LOCAL_TIME ( 13, 6, 44.00000000000000000, #131 ) ;
#25 = FACE_OUTER_BOUND ( 'NONE', #148, .T. ) ;
#26 = EDGE_CURVE ( 'NONE', #150, #190, #104, .T. ) ;
#27 = CARTESIAN_POINT ( 'NONE',  ( -6.000000000000000888, 0.000000000000000000, 5.000000000000000000 ) ) ;
#28 = EDGE_CURVE ( 'NONE', #244, #171, #86, .T. ) ;
#29 = ORIENTED_EDGE ( 'NONE', *, *, #80, .F. ) ;
#30 = VECTOR ( 'NONE', #165, 1000.000000000000000 ) ;
#31 = AXIS2_PLACEMENT_3D ( 'NONE', #203, #136, #216 ) ;
#32 = ORGANIZATION ( 'NEURÈENÝ', 'NEURÈENÝ', '' ) ;
#33 = APPROVAL ( #210, 'NEURÈENÝ' ) ;
#34 = ORIENTED_EDGE ( 'NONE', *, *, #251, .T. ) ;
#35 = SECURITY_CLASSIFICATION_LEVEL ( 'unclassified' ) ;
#36 = ORIENTED_EDGE ( 'NONE', *, *, #67, .T. ) ;
#37 = ORIENTED_EDGE ( 'NONE', *, *, #102, .F. ) ;
#38 = PERSON_AND_ORGANIZATION ( #83, #32 ) ;
#39 = CIRCLE ( 'NONE', #130, 3.250000000000000444 ) ;
#40 = DIRECTION ( 'NONE',  ( -0.000000000000000000, -0.000000000000000000, -1.000000000000000000 ) ) ;
#41 = APPROVAL_ROLE ( '' ) ;
#42 = DIRECTION ( 'NONE',  ( 1.000000000000000000, 0.000000000000000000, -0.000000000000000000 ) ) ;
#43 = DIRECTION ( 'NONE',  ( 1.000000000000000000, 0.000000000000000000, -0.000000000000000000 ) ) ;
#44 = CARTESIAN_POINT ( 'NONE',  ( -3.250000000000000444, 0.000000000000000000, 5.000000000000000000 ) ) ;
#45 = AXIS2_PLACEMENT_3D ( 'NONE', #134, #15, #43 ) ;
#46 = CC_DESIGN_PERSON_AND_ORGANIZATION_ASSIGNMENT ( #77, #95, ( #54 ) ) ;
#47 = PRODUCT_DEFINITION_SHAPE ( 'NONE', 'NONE',  #6 ) ;
#48 = APPROVAL_ROLE ( '' ) ;
#49 = CARTESIAN_POINT ( 'NONE',  ( 0.000000000000000000, 0.000000000000000000, 800.0000000000000000 ) ) ;
#50 = APPROVAL_PERSON_ORGANIZATION ( #129, #33, #97 ) ;
#51 = VERTEX_POINT ( 'NONE', #66 ) ;
#52 = CC_DESIGN_PERSON_AND_ORGANIZATION_ASSIGNMENT ( #107, #81, ( #236 ) ) ;
#53 = ORIENTED_EDGE ( 'NONE', *, *, #201, .F. ) ;
#54 = PRODUCT_DEFINITION_FORMATION_WITH_SPECIFIED_SOURCE ( 'LIBOVOLNÝ', '', #236, .NOT_KNOWN. ) ;
#55 = ORIENTED_EDGE ( 'NONE', *, *, #26, .T. ) ;
#56 = CARTESIAN_POINT ( 'NONE',  ( 0.000000000000000000, 0.000000000000000000, 5.000000000000000000 ) ) ;
#57 = ORIENTED_EDGE ( 'NONE', *, *, #11, .F. ) ;
#58 = APPLICATION_PROTOCOL_DEFINITION ( 'international standard', 'config_control_design', 1994, #116 ) ;
#59 = APPROVAL_DATE_TIME ( #196, #33 ) ;
#60 =( LENGTH_UNIT ( ) NAMED_UNIT ( * ) SI_UNIT ( .MILLI., .METRE. ) );
#61 = EDGE_CURVE ( 'NONE', #190, #51, #73, .T. ) ;
#62 = FACE_BOUND ( 'NONE', #108, .T. ) ;
#63 = LOCAL_TIME ( 13, 6, 44.00000000000000000, #160 ) ;
#64 = CYLINDRICAL_SURFACE ( 'NONE', #31, 6.000000000000000888 ) ;
#65 = CC_DESIGN_APPROVAL ( #33, ( #6 ) ) ;
#66 = CARTESIAN_POINT ( 'NONE',  ( -6.000000000000000888, 0.000000000000000000, 0.000000000000000000 ) ) ;
#67 = EDGE_CURVE ( 'NONE', #226, #209, #112, .T. ) ;
#68 = DIRECTION ( 'NONE',  ( 1.000000000000000000, 0.000000000000000000, 0.000000000000000000 ) ) ;
#69 = PRODUCT_RELATED_PRODUCT_CATEGORY ( 'detail', '', ( #236 ) ) ;
#70 = DIRECTION ( 'NONE',  ( -0.000000000000000000, -0.000000000000000000, -1.000000000000000000 ) ) ;
#71 = ORIENTED_EDGE ( 'NONE', *, *, #26, .F. ) ;
#72 = VERTEX_POINT ( 'NONE', #27 ) ;
#73 = CIRCLE ( 'NONE', #144, 6.000000000000000888 ) ;
#74 = COORDINATED_UNIVERSAL_TIME_OFFSET ( 1, 0, .AHEAD. ) ;
#75 = EDGE_CURVE ( 'NONE', #171, #244, #39, .T. ) ;
#76 = ORIENTED_EDGE ( 'NONE', *, *, #11, .T. ) ;
#77 = PERSON_AND_ORGANIZATION ( #83, #32 ) ;
#78 = DIRECTION ( 'NONE',  ( -0.000000000000000000, -0.000000000000000000, -1.000000000000000000 ) ) ;
#79 = DIRECTION ( 'NONE',  ( -1.000000000000000000, 0.000000000000000000, 0.000000000000000000 ) ) ;
#80 = EDGE_CURVE ( 'NONE', #51, #190, #170, .T. ) ;
#81 = PERSON_AND_ORGANIZATION_ROLE ( 'design_owner' ) ;
#82 = CARTESIAN_POINT ( 'NONE',  ( -3.250000000000000444, 0.000000000000000000, 800.0000000000000000 ) ) ;
#83 = PERSON ( 'NEURÈENÝ', 'NEURÈENÝ', 'NEURÈENÝ', ('NEURÈENÝ'), ('NEURÈENÝ'), ('NEURÈENÝ') ) ;
#84 = DIRECTION ( 'NONE',  ( 0.000000000000000000, 0.000000000000000000, 1.000000000000000000 ) ) ;
#85 = ADVANCED_FACE ( 'NONE', ( #163 ), #237, .T. ) ;
#86 = CIRCLE ( 'NONE', #223, 3.250000000000000444 ) ;
#87 = AXIS2_PLACEMENT_3D ( 'NONE', #241, #222, #23 ) ;
#88 = CC_DESIGN_PERSON_AND_ORGANIZATION_ASSIGNMENT ( #109, #192, ( #54 ) ) ;
#89 = DIRECTION ( 'NONE',  ( 0.000000000000000000, 0.000000000000000000, 1.000000000000000000 ) ) ;
#90 = DIRECTION ( 'NONE',  ( 0.000000000000000000, 0.000000000000000000, 1.000000000000000000 ) ) ;
#91 = ORIENTED_EDGE ( 'NONE', *, *, #67, .F. ) ;
#92 = EDGE_LOOP ( 'NONE', ( #12, #34 ) ) ;
#93 = MECHANICAL_CONTEXT ( 'NONE', #105, 'mechanical' ) ;
#94 = CYLINDRICAL_SURFACE ( 'NONE', #233, 3.250000000000000444 ) ;
#95 = PERSON_AND_ORGANIZATION_ROLE ( 'design_supplier' ) ;
#96 = DIRECTION ( 'NONE',  ( 0.000000000000000000, 0.000000000000000000, 1.000000000000000000 ) ) ;
#97 = APPROVAL_ROLE ( '' ) ;
#98 = CARTESIAN_POINT ( 'NONE',  ( 6.000000000000000888, 7.347880794884120722E-16, 0.000000000000000000 ) ) ;
#99 = CIRCLE ( 'NONE', #2, 3.250000000000000444 ) ;
#100 = SECURITY_CLASSIFICATION ( '', '', #35 ) ;
#101 = DIRECTION ( 'NONE',  ( 1.000000000000000000, 0.000000000000000000, 0.000000000000000000 ) ) ;
#102 = EDGE_CURVE ( 'NONE', #72, #150, #218, .T. ) ;
#103 = DIRECTION ( 'NONE',  ( 0.000000000000000000, 0.000000000000000000, 1.000000000000000000 ) ) ;
#104 = LINE ( 'NONE', #242, #143 ) ;
#105 = APPLICATION_CONTEXT ( 'configuration controlled 3d designs of mechanical parts and assemblies' ) ;
#106 = ORIENTED_EDGE ( 'NONE', *, *, #75, .F. ) ;
#107 = PERSON_AND_ORGANIZATION ( #83, #32 ) ;
#108 = EDGE_LOOP ( 'NONE', ( #175, #106 ) ) ;
#109 = PERSON_AND_ORGANIZATION ( #83, #32 ) ;
#110 = PLANE ( 'NONE',  #139 ) ;
#111 = EDGE_LOOP ( 'NONE', ( #14, #55, #145, #53 ) ) ;
#112 = CIRCLE ( 'NONE', #3, 3.250000000000000444 ) ;
#113 = APPROVAL_PERSON_ORGANIZATION ( #179, #221, #41 ) ;
#114 = DATE_TIME_ROLE ( 'creation_date' ) ;
#115 = DIRECTION ( 'NONE',  ( -1.000000000000000000, 0.000000000000000000, 0.000000000000000000 ) ) ;
#116 = APPLICATION_CONTEXT ( 'configuration controlled 3d designs of mechanical parts and assemblies' ) ;
#117 = CALENDAR_DATE ( 2023, 12, 2 ) ;
#118 = FACE_OUTER_BOUND ( 'NONE', #191, .T. ) ;
#119 = CARTESIAN_POINT ( 'NONE',  ( 3.250000000000000444, 3.980102097228898231E-16, 800.0000000000000000 ) ) ;
#120 = DIRECTION ( 'NONE',  ( 0.000000000000000000, 0.000000000000000000, 1.000000000000000000 ) ) ;
#121 = AXIS2_PLACEMENT_3D ( 'NONE', #183, #103, #1 ) ;
#122 = APPROVAL_DATE_TIME ( #5, #159 ) ;
#123 = SHAPE_DEFINITION_REPRESENTATION ( #47, #133 ) ;
#124 = ORIENTED_EDGE ( 'NONE', *, *, #17, .F. ) ;
#125 = LOCAL_TIME ( 13, 6, 44.00000000000000000, #154 ) ;
#126 = ORIENTED_EDGE ( 'NONE', *, *, #80, .T. ) ;
#127 = DIRECTION ( 'NONE',  ( 1.000000000000000000, 0.000000000000000000, 0.000000000000000000 ) ) ;
#128 = EDGE_LOOP ( 'NONE', ( #57, #124, #147, #10 ) ) ;
#129 = PERSON_AND_ORGANIZATION ( #83, #32 ) ;
#130 = AXIS2_PLACEMENT_3D ( 'NONE', #186, #7, #68 ) ;
#131 = COORDINATED_UNIVERSAL_TIME_OFFSET ( 1, 0, .AHEAD. ) ;
#132 = PLANE ( 'NONE',  #45 ) ;
#133 = ADVANCED_BREP_SHAPE_REPRESENTATION ( '767f', ( #178, #199 ), #254 ) ;
#134 = CARTESIAN_POINT ( 'NONE',  ( 0.000000000000000000, 0.000000000000000000, 5.000000000000000000 ) ) ;
#135 = ADVANCED_FACE ( 'NONE', ( #162 ), #64, .T. ) ;
#136 = DIRECTION ( 'NONE',  ( -0.000000000000000000, -0.000000000000000000, -1.000000000000000000 ) ) ;
#137 = ADVANCED_FACE ( 'NONE', ( #25 ), #110, .F. ) ;
#138 = DIRECTION ( 'NONE',  ( 1.000000000000000000, 0.000000000000000000, 0.000000000000000000 ) ) ;
#139 = AXIS2_PLACEMENT_3D ( 'NONE', #211, #96, #42 ) ;
#140 = AXIS2_PLACEMENT_3D ( 'NONE', #155, #255, #115 ) ;
#141 = CARTESIAN_POINT ( 'NONE',  ( 0.000000000000000000, 0.000000000000000000, 0.000000000000000000 ) ) ;
#142 = APPLICATION_PROTOCOL_DEFINITION ( 'international standard', 'config_control_design', 1994, #105 ) ;
#143 = VECTOR ( 'NONE', #70, 1000.000000000000000 ) ;
#144 = AXIS2_PLACEMENT_3D ( 'NONE', #141, #220, #8 ) ;
#145 = ORIENTED_EDGE ( 'NONE', *, *, #61, .T. ) ;
#146 = EDGE_CURVE ( 'NONE', #209, #244, #18, .T. ) ;
#147 = ORIENTED_EDGE ( 'NONE', *, *, #146, .T. ) ;
#148 = EDGE_LOOP ( 'NONE', ( #29, #172 ) ) ;
#149 = APPROVAL_DATE_TIME ( #173, #221 ) ;
#150 = VERTEX_POINT ( 'NONE', #158 ) ;
#151 = PERSON_AND_ORGANIZATION_ROLE ( 'classification_officer' ) ;
#152 = DIRECTION ( 'NONE',  ( -1.000000000000000000, 0.000000000000000000, 0.000000000000000000 ) ) ;
#153 = ADVANCED_FACE ( 'NONE', ( #118 ), #234, .T. ) ;
#154 = COORDINATED_UNIVERSAL_TIME_OFFSET ( 1, 0, .AHEAD. ) ;
#155 = CARTESIAN_POINT ( 'NONE',  ( 0.000000000000000000, 0.000000000000000000, 5.000000000000000000 ) ) ;
#156 = CLOSED_SHELL ( 'NONE', ( #153, #135, #227, #188, #137, #219, #85 ) ) ;
#157 = PERSON_AND_ORGANIZATION ( #83, #32 ) ;
#158 = CARTESIAN_POINT ( 'NONE',  ( 6.000000000000000888, 7.347880794884120722E-16, 5.000000000000000000 ) ) ;
#159 = APPROVAL ( #168, 'NEURÈENÝ' ) ;
#160 = COORDINATED_UNIVERSAL_TIME_OFFSET ( 1, 0, .AHEAD. ) ;
#161 = CIRCLE ( 'NONE', #9, 6.000000000000000888 ) ;
#162 = FACE_OUTER_BOUND ( 'NONE', #111, .T. ) ;
#163 = FACE_OUTER_BOUND ( 'NONE', #194, .T. ) ;
#164 = DESIGN_CONTEXT ( 'detailed design', #116, 'design' ) ;
#165 = DIRECTION ( 'NONE',  ( -0.000000000000000000, -0.000000000000000000, -1.000000000000000000 ) ) ;
#166 = AXIS2_PLACEMENT_3D ( 'NONE', #22, #78, #79 ) ;
#167 = CARTESIAN_POINT ( 'NONE',  ( 0.000000000000000000, 0.000000000000000000, 800.0000000000000000 ) ) ;
#168 = APPROVAL_STATUS ( 'not_yet_approved' ) ;
#169 =( NAMED_UNIT ( * ) PLANE_ANGLE_UNIT ( ) SI_UNIT ( $, .RADIAN. ) );
#170 = CIRCLE ( 'NONE', #87, 6.000000000000000888 ) ;
#171 = VERTEX_POINT ( 'NONE', #177 ) ;
#172 = ORIENTED_EDGE ( 'NONE', *, *, #61, .F. ) ;
#173 = DATE_AND_TIME ( #213, #24 ) ;
#174 = LOCAL_TIME ( 13, 6, 44.00000000000000000, #232 ) ;
#175 = ORIENTED_EDGE ( 'NONE', *, *, #28, .F. ) ;
#176 = PERSON_AND_ORGANIZATION_ROLE ( 'creator' ) ;
#177 = CARTESIAN_POINT ( 'NONE',  ( 3.250000000000000444, 3.980102097228898231E-16, 5.000000000000000000 ) ) ;
#178 = MANIFOLD_SOLID_BREP ( 'Pøidat vysunutím3', #156 ) ;
#179 = PERSON_AND_ORGANIZATION ( #83, #32 ) ;
#180 = DATE_AND_TIME ( #117, #125 ) ;
#181 = CARTESIAN_POINT ( 'NONE',  ( -6.000000000000000888, 0.000000000000000000, 5.000000000000000000 ) ) ;
#182 = FACE_OUTER_BOUND ( 'NONE', #245, .T. ) ;
#183 = CARTESIAN_POINT ( 'NONE',  ( 0.000000000000000000, 0.000000000000000000, 800.0000000000000000 ) ) ;
#184 = CARTESIAN_POINT ( 'NONE',  ( 3.250000000000000444, 3.980102097228898231E-16, 800.0000000000000000 ) ) ;
#185 = CALENDAR_DATE ( 2023, 12, 2 ) ;
#186 = CARTESIAN_POINT ( 'NONE',  ( 0.000000000000000000, 0.000000000000000000, 5.000000000000000000 ) ) ;
#187 = CARTESIAN_POINT ( 'NONE',  ( 0.000000000000000000, 0.000000000000000000, 0.000000000000000000 ) ) ;
#188 = ADVANCED_FACE ( 'NONE', ( #62, #214 ), #132, .T. ) ;
#189 = CC_DESIGN_SECURITY_CLASSIFICATION ( #100, ( #54 ) ) ;
#190 = VERTEX_POINT ( 'NONE', #98 ) ;
#191 = EDGE_LOOP ( 'NONE', ( #91, #76, #206, #16 ) ) ;
#192 = PERSON_AND_ORGANIZATION_ROLE ( 'creator' ) ;
#193 = CC_DESIGN_APPROVAL ( #221, ( #54 ) ) ;
#194 = EDGE_LOOP ( 'NONE', ( #229, #36 ) ) ;
#195 = APPROVAL_STATUS ( 'not_yet_approved' ) ;
#196 = DATE_AND_TIME ( #212, #174 ) ;
#197 = CYLINDRICAL_SURFACE ( 'NONE', #140, 6.000000000000000888 ) ;
#198 = CC_DESIGN_DATE_AND_TIME_ASSIGNMENT ( #13, #114, ( #6 ) ) ;
#199 = AXIS2_PLACEMENT_3D ( 'NONE', #187, #90, #127 ) ;
#200 = APPROVAL_PERSON_ORGANIZATION ( #157, #159, #48 ) ;
#201 = EDGE_CURVE ( 'NONE', #72, #51, #230, .T. ) ;
#202 = LOCAL_TIME ( 13, 6, 44.00000000000000000, #74 ) ;
#203 = CARTESIAN_POINT ( 'NONE',  ( 0.000000000000000000, 0.000000000000000000, 5.000000000000000000 ) ) ;
#204 = DIRECTION ( 'NONE',  ( 1.000000000000000000, 0.000000000000000000, 0.000000000000000000 ) ) ;
#205 = CC_DESIGN_DATE_AND_TIME_ASSIGNMENT ( #180, #252, ( #100 ) ) ;
#206 = ORIENTED_EDGE ( 'NONE', *, *, #75, .T. ) ;
#207 = AXIS2_PLACEMENT_3D ( 'NONE', #4, #84, #217 ) ;
#208 = ORIENTED_EDGE ( 'NONE', *, *, #201, .T. ) ;
#209 = VERTEX_POINT ( 'NONE', #215 ) ;
#210 = APPROVAL_STATUS ( 'not_yet_approved' ) ;
#211 = CARTESIAN_POINT ( 'NONE',  ( 0.000000000000000000, 0.000000000000000000, 0.000000000000000000 ) ) ;
#212 = CALENDAR_DATE ( 2023, 12, 2 ) ;
#213 = CALENDAR_DATE ( 2023, 12, 2 ) ;
#214 = FACE_OUTER_BOUND ( 'NONE', #92, .T. ) ;
#215 = CARTESIAN_POINT ( 'NONE',  ( -3.250000000000000444, 0.000000000000000000, 800.0000000000000000 ) ) ;
#216 = DIRECTION ( 'NONE',  ( -1.000000000000000000, 0.000000000000000000, 0.000000000000000000 ) ) ;
#217 = DIRECTION ( 'NONE',  ( 1.000000000000000000, 0.000000000000000000, 0.000000000000000000 ) ) ;
#218 = CIRCLE ( 'NONE', #207, 6.000000000000000888 ) ;
#219 = ADVANCED_FACE ( 'NONE', ( #247 ), #94, .T. ) ;
#220 = DIRECTION ( 'NONE',  ( 0.000000000000000000, 0.000000000000000000, 1.000000000000000000 ) ) ;
#221 = APPROVAL ( #195, 'NEURÈENÝ' ) ;
#222 = DIRECTION ( 'NONE',  ( 0.000000000000000000, 0.000000000000000000, 1.000000000000000000 ) ) ;
#223 = AXIS2_PLACEMENT_3D ( 'NONE', #243, #239, #138 ) ;
#224 = DIRECTION ( 'NONE',  ( 1.000000000000000000, 0.000000000000000000, 0.000000000000000000 ) ) ;
#225 =( NAMED_UNIT ( * ) SI_UNIT ( $, .STERADIAN. ) SOLID_ANGLE_UNIT ( ) );
#226 = VERTEX_POINT ( 'NONE', #119 ) ;
#227 = ADVANCED_FACE ( 'NONE', ( #182 ), #197, .T. ) ;
#228 = VECTOR ( 'NONE', #250, 1000.000000000000000 ) ;
#229 = ORIENTED_EDGE ( 'NONE', *, *, #17, .T. ) ;
#230 = LINE ( 'NONE', #181, #20 ) ;
#231 = LINE ( 'NONE', #184, #30 ) ;
#232 = COORDINATED_UNIVERSAL_TIME_OFFSET ( 1, 0, .AHEAD. ) ;
#233 = AXIS2_PLACEMENT_3D ( 'NONE', #19, #40, #152 ) ;
#234 = CYLINDRICAL_SURFACE ( 'NONE', #166, 3.250000000000000444 ) ;
#235 = UNCERTAINTY_MEASURE_WITH_UNIT (LENGTH_MEASURE( 1.000000000000000082E-05 ), #60, 'distance_accuracy_value', 'NONE');
#236 = PRODUCT ( '767f', '767f', '', ( #93 ) ) ;
#237 = PLANE ( 'NONE',  #121 ) ;
#238 = CC_DESIGN_PERSON_AND_ORGANIZATION_ASSIGNMENT ( #38, #176, ( #6 ) ) ;
#239 = DIRECTION ( 'NONE',  ( 0.000000000000000000, 0.000000000000000000, 1.000000000000000000 ) ) ;
#240 = DIRECTION ( 'NONE',  ( 0.000000000000000000, 0.000000000000000000, 1.000000000000000000 ) ) ;
#241 = CARTESIAN_POINT ( 'NONE',  ( 0.000000000000000000, 0.000000000000000000, 0.000000000000000000 ) ) ;
#242 = CARTESIAN_POINT ( 'NONE',  ( 6.000000000000000888, 7.347880794884120722E-16, 5.000000000000000000 ) ) ;
#243 = CARTESIAN_POINT ( 'NONE',  ( 0.000000000000000000, 0.000000000000000000, 5.000000000000000000 ) ) ;
#244 = VERTEX_POINT ( 'NONE', #44 ) ;
#245 = EDGE_LOOP ( 'NONE', ( #71, #37, #208, #126 ) ) ;
#246 = CC_DESIGN_PERSON_AND_ORGANIZATION_ASSIGNMENT ( #249, #151, ( #100 ) ) ;
#247 = FACE_OUTER_BOUND ( 'NONE', #128, .T. ) ;
#248 = CALENDAR_DATE ( 2023, 12, 2 ) ;
#249 = PERSON_AND_ORGANIZATION ( #83, #32 ) ;
#250 = DIRECTION ( 'NONE',  ( -0.000000000000000000, -0.000000000000000000, -1.000000000000000000 ) ) ;
#251 = EDGE_CURVE ( 'NONE', #150, #72, #161, .T. ) ;
#252 = DATE_TIME_ROLE ( 'classification_date' ) ;
#253 = DIRECTION ( 'NONE',  ( -0.000000000000000000, -0.000000000000000000, -1.000000000000000000 ) ) ;
#254 =( GEOMETRIC_REPRESENTATION_CONTEXT ( 3 ) GLOBAL_UNCERTAINTY_ASSIGNED_CONTEXT ( ( #235 ) ) GLOBAL_UNIT_ASSIGNED_CONTEXT ( ( #60, #169, #225 ) ) REPRESENTATION_CONTEXT ( 'NONE', 'WORKASPACE' ) );
#255 = DIRECTION ( 'NONE',  ( -0.000000000000000000, -0.000000000000000000, -1.000000000000000000 ) ) ;
ENDSEC;
END-ISO-10303-21;
