ISO-10303-21;
HEADER;
FILE_DESCRIPTION (( 'STEP AP203' ),
    '1' );
FILE_NAME ('68c9.STEP',
    '2023-02-12T12:56:25',
    ( '' ),
    ( '' ),
    'SwSTEP 2.0',
    'SolidWorks 2019',
    '' );
FILE_SCHEMA (( 'CONFIG_CONTROL_DESIGN' ));
ENDSEC;

DATA;
#1 = CLOSED_SHELL ( 'NONE', ( #45, #66, #141, #150, #11, #55, #34 ) ) ;
#2 = DATE_TIME_ROLE ( 'creation_date' ) ;
#3 = AXIS2_PLACEMENT_3D ( 'NONE', #233, #133, #116 ) ;
#4 = FACE_OUTER_BOUND ( 'NONE', #102, .T. ) ;
#5 = PERSON_AND_ORGANIZATION ( #244, #231 ) ;
#6 = MECHANICAL_CONTEXT ( 'NONE', #153, 'mechanical' ) ;
#7 = EDGE_LOOP ( 'NONE', ( #205, #243, #42, #220 ) ) ;
#8 = DATE_AND_TIME ( #184, #36 ) ;
#9 = AXIS2_PLACEMENT_3D ( 'NONE', #128, #210, #29 ) ;
#10 = ORIENTED_EDGE ( 'NONE', *, *, #213, .T. ) ;
#11 = ADVANCED_FACE ( 'NONE', ( #4 ), #79, .F. ) ;
#12 = DIRECTION ( 'NONE',  ( 0.000000000000000000, 0.000000000000000000, 1.000000000000000000 ) ) ;
#13 = CARTESIAN_POINT ( 'NONE',  ( 0.000000000000000000, 0.000000000000000000, 1.500000000000000000 ) ) ;
#14 = CALENDAR_DATE ( 2023, 12, 2 ) ;
#15 = CARTESIAN_POINT ( 'NONE',  ( 0.000000000000000000, 0.000000000000000000, 1.500000000000000000 ) ) ;
#16 = APPROVAL ( #242, 'NEURÈENÝ' ) ;
#17 = CYLINDRICAL_SURFACE ( 'NONE', #215, 0.7500000000000001110 ) ;
#18 = LINE ( 'NONE', #175, #250 ) ;
#19 = AXIS2_PLACEMENT_3D ( 'NONE', #25, #64, #85 ) ;
#20 = APPROVAL_PERSON_ORGANIZATION ( #5, #186, #59 ) ;
#21 = VERTEX_POINT ( 'NONE', #65 ) ;
#22 = EDGE_LOOP ( 'NONE', ( #58, #140 ) ) ;
#23 = DATE_AND_TIME ( #203, #171 ) ;
#24 = ORIENTED_EDGE ( 'NONE', *, *, #114, .F. ) ;
#25 = CARTESIAN_POINT ( 'NONE',  ( 0.000000000000000000, 0.000000000000000000, 0.000000000000000000 ) ) ;
#26 = VECTOR ( 'NONE', #254, 1000.000000000000000 ) ;
#27 = DIRECTION ( 'NONE',  ( -0.000000000000000000, -0.000000000000000000, -1.000000000000000000 ) ) ;
#28 = DIRECTION ( 'NONE',  ( 1.000000000000000000, 0.000000000000000000, 0.000000000000000000 ) ) ;
#29 = DIRECTION ( 'NONE',  ( -1.000000000000000000, 0.000000000000000000, 0.000000000000000000 ) ) ;
#30 = CIRCLE ( 'NONE', #19, 1.500000000000000222 ) ;
#31 = DATE_TIME_ROLE ( 'classification_date' ) ;
#32 = CARTESIAN_POINT ( 'NONE',  ( 0.000000000000000000, 0.000000000000000000, 1.500000000000000000 ) ) ;
#33 = COORDINATED_UNIVERSAL_TIME_OFFSET ( 1, 0, .AHEAD. ) ;
#34 = ADVANCED_FACE ( 'NONE', ( #88 ), #148, .T. ) ;
#35 = AXIS2_PLACEMENT_3D ( 'NONE', #130, #69, #28 ) ;
#36 = LOCAL_TIME ( 13, 56, 25.00000000000000000, #82 ) ;
#37 =( NAMED_UNIT ( * ) SI_UNIT ( $, .STERADIAN. ) SOLID_ANGLE_UNIT ( ) );
#38 = PRODUCT_RELATED_PRODUCT_CATEGORY ( 'detail', '', ( #144 ) ) ;
#39 =( LENGTH_UNIT ( ) NAMED_UNIT ( * ) SI_UNIT ( .MILLI., .METRE. ) );
#40 = VERTEX_POINT ( 'NONE', #209 ) ;
#41 = CC_DESIGN_PERSON_AND_ORGANIZATION_ASSIGNMENT ( #124, #207, ( #144 ) ) ;
#42 = ORIENTED_EDGE ( 'NONE', *, *, #217, .T. ) ;
#43 = ORIENTED_EDGE ( 'NONE', *, *, #76, .F. ) ;
#44 = SECURITY_CLASSIFICATION_LEVEL ( 'unclassified' ) ;
#45 = ADVANCED_FACE ( 'NONE', ( #147 ), #228, .T. ) ;
#46 = FACE_OUTER_BOUND ( 'NONE', #22, .T. ) ;
#47 = CARTESIAN_POINT ( 'NONE',  ( 0.000000000000000000, 0.000000000000000000, 1.500000000000000000 ) ) ;
#48 = DIRECTION ( 'NONE',  ( 1.000000000000000000, 0.000000000000000000, -0.000000000000000000 ) ) ;
#49 = DIRECTION ( 'NONE',  ( 1.000000000000000000, 0.000000000000000000, -0.000000000000000000 ) ) ;
#50 = CYLINDRICAL_SURFACE ( 'NONE', #216, 1.500000000000000222 ) ;
#51 = APPROVAL_STATUS ( 'not_yet_approved' ) ;
#52 = DIRECTION ( 'NONE',  ( 1.000000000000000000, 0.000000000000000000, 0.000000000000000000 ) ) ;
#53 = APPROVAL_PERSON_ORGANIZATION ( #137, #16, #221 ) ;
#54 = CARTESIAN_POINT ( 'NONE',  ( -1.500000000000000222, 0.000000000000000000, 1.500000000000000000 ) ) ;
#55 = ADVANCED_FACE ( 'NONE', ( #172 ), #17, .T. ) ;
#56 = ORIENTED_EDGE ( 'NONE', *, *, #168, .T. ) ;
#57 = APPROVAL_PERSON_ORGANIZATION ( #92, #73, #212 ) ;
#58 = ORIENTED_EDGE ( 'NONE', *, *, #155, .T. ) ;
#59 = APPROVAL_ROLE ( '' ) ;
#60 = DIRECTION ( 'NONE',  ( 1.000000000000000000, 0.000000000000000000, -0.000000000000000000 ) ) ;
#61 = VERTEX_POINT ( 'NONE', #143 ) ;
#62 = PERSON_AND_ORGANIZATION_ROLE ( 'design_supplier' ) ;
#63 = AXIS2_PLACEMENT_3D ( 'NONE', #249, #152, #52 ) ;
#64 = DIRECTION ( 'NONE',  ( 0.000000000000000000, 0.000000000000000000, 1.000000000000000000 ) ) ;
#65 = CARTESIAN_POINT ( 'NONE',  ( -1.500000000000000222, 0.000000000000000000, 0.000000000000000000 ) ) ;
#66 = ADVANCED_FACE ( 'NONE', ( #194 ), #195, .T. ) ;
#67 = CARTESIAN_POINT ( 'NONE',  ( 0.000000000000000000, 0.000000000000000000, 160.0000000000000000 ) ) ;
#68 = DIRECTION ( 'NONE',  ( -0.000000000000000000, -0.000000000000000000, -1.000000000000000000 ) ) ;
#69 = DIRECTION ( 'NONE',  ( 0.000000000000000000, 0.000000000000000000, 1.000000000000000000 ) ) ;
#70 = MANIFOLD_SOLID_BREP ( 'Pøidat vysunutím3', #1 ) ;
#71 = CARTESIAN_POINT ( 'NONE',  ( 0.000000000000000000, 0.000000000000000000, 0.000000000000000000 ) ) ;
#72 = APPLICATION_PROTOCOL_DEFINITION ( 'international standard', 'config_control_design', 1994, #153 ) ;
#73 = APPROVAL ( #51, 'NEURÈENÝ' ) ;
#74 = AXIS2_PLACEMENT_3D ( 'NONE', #67, #86, #49 ) ;
#75 = DESIGN_CONTEXT ( 'detailed design', #94, 'design' ) ;
#76 = EDGE_CURVE ( 'NONE', #179, #185, #113, .T. ) ;
#77 = DIRECTION ( 'NONE',  ( 0.000000000000000000, 0.000000000000000000, 1.000000000000000000 ) ) ;
#78 = ORIENTED_EDGE ( 'NONE', *, *, #196, .T. ) ;
#79 = PLANE ( 'NONE',  #193 ) ;
#80 = APPROVAL_DATE_TIME ( #23, #16 ) ;
#81 = ORIENTED_EDGE ( 'NONE', *, *, #91, .T. ) ;
#82 = COORDINATED_UNIVERSAL_TIME_OFFSET ( 1, 0, .AHEAD. ) ;
#83 = PRODUCT_DEFINITION_SHAPE ( 'NONE', 'NONE',  #198 ) ;
#84 = DIRECTION ( 'NONE',  ( 1.000000000000000000, 0.000000000000000000, 0.000000000000000000 ) ) ;
#85 = DIRECTION ( 'NONE',  ( 1.000000000000000000, 0.000000000000000000, 0.000000000000000000 ) ) ;
#86 = DIRECTION ( 'NONE',  ( 0.000000000000000000, 0.000000000000000000, 1.000000000000000000 ) ) ;
#87 = CC_DESIGN_APPROVAL ( #73, ( #218 ) ) ;
#88 = FACE_OUTER_BOUND ( 'NONE', #183, .T. ) ;
#89 = DATE_AND_TIME ( #14, #106 ) ;
#90 = DIRECTION ( 'NONE',  ( 0.000000000000000000, 0.000000000000000000, 1.000000000000000000 ) ) ;
#91 = EDGE_CURVE ( 'NONE', #119, #61, #235, .T. ) ;
#92 = PERSON_AND_ORGANIZATION ( #244, #231 ) ;
#93 =( NAMED_UNIT ( * ) PLANE_ANGLE_UNIT ( ) SI_UNIT ( $, .RADIAN. ) );
#94 = APPLICATION_CONTEXT ( 'configuration controlled 3d designs of mechanical parts and assemblies' ) ;
#95 =( GEOMETRIC_REPRESENTATION_CONTEXT ( 3 ) GLOBAL_UNCERTAINTY_ASSIGNED_CONTEXT ( ( #177 ) ) GLOBAL_UNIT_ASSIGNED_CONTEXT ( ( #39, #93, #37 ) ) REPRESENTATION_CONTEXT ( 'NONE', 'WORKASPACE' ) );
#96 = ORIENTED_EDGE ( 'NONE', *, *, #129, .T. ) ;
#97 = CIRCLE ( 'NONE', #248, 1.500000000000000222 ) ;
#98 = PERSON_AND_ORGANIZATION ( #244, #231 ) ;
#99 = ORIENTED_EDGE ( 'NONE', *, *, #213, .F. ) ;
#100 = VECTOR ( 'NONE', #68, 1000.000000000000000 ) ;
#101 = CC_DESIGN_PERSON_AND_ORGANIZATION_ASSIGNMENT ( #98, #158, ( #198 ) ) ;
#102 = EDGE_LOOP ( 'NONE', ( #24, #219 ) ) ;
#103 = APPROVAL_STATUS ( 'not_yet_approved' ) ;
#104 = DIRECTION ( 'NONE',  ( -1.000000000000000000, 0.000000000000000000, 0.000000000000000000 ) ) ;
#105 = EDGE_CURVE ( 'NONE', #162, #40, #109, .T. ) ;
#106 = LOCAL_TIME ( 13, 56, 25.00000000000000000, #149 ) ;
#107 = LINE ( 'NONE', #190, #100 ) ;
#108 = PLANE ( 'NONE',  #170 ) ;
#109 = CIRCLE ( 'NONE', #178, 0.7500000000000001110 ) ;
#110 = DIRECTION ( 'NONE',  ( -1.000000000000000000, 0.000000000000000000, 0.000000000000000000 ) ) ;
#111 = DIRECTION ( 'NONE',  ( -1.000000000000000000, 0.000000000000000000, 0.000000000000000000 ) ) ;
#112 = APPROVAL_DATE_TIME ( #197, #73 ) ;
#113 = CIRCLE ( 'NONE', #146, 1.500000000000000222 ) ;
#114 = EDGE_CURVE ( 'NONE', #21, #241, #97, .T. ) ;
#115 = CIRCLE ( 'NONE', #3, 0.7500000000000001110 ) ;
#116 = DIRECTION ( 'NONE',  ( 1.000000000000000000, 0.000000000000000000, 0.000000000000000000 ) ) ;
#117 = ADVANCED_BREP_SHAPE_REPRESENTATION ( '68c9', ( #70, #131 ), #95 ) ;
#118 = ORIENTED_EDGE ( 'NONE', *, *, #174, .F. ) ;
#119 = VERTEX_POINT ( 'NONE', #169 ) ;
#120 = COORDINATED_UNIVERSAL_TIME_OFFSET ( 1, 0, .AHEAD. ) ;
#121 = CC_DESIGN_PERSON_AND_ORGANIZATION_ASSIGNMENT ( #182, #161, ( #188 ) ) ;
#122 = CC_DESIGN_DATE_AND_TIME_ASSIGNMENT ( #139, #2, ( #198 ) ) ;
#123 = DIRECTION ( 'NONE',  ( 0.000000000000000000, 0.000000000000000000, 1.000000000000000000 ) ) ;
#124 = PERSON_AND_ORGANIZATION ( #244, #231 ) ;
#125 = CARTESIAN_POINT ( 'NONE',  ( 0.7500000000000001110, 9.184850993605150903E-17, 1.500000000000000000 ) ) ;
#126 = PERSON_AND_ORGANIZATION ( #244, #231 ) ;
#127 = CARTESIAN_POINT ( 'NONE',  ( -1.500000000000000222, 0.000000000000000000, 1.500000000000000000 ) ) ;
#128 = CARTESIAN_POINT ( 'NONE',  ( 0.000000000000000000, 0.000000000000000000, 160.0000000000000000 ) ) ;
#129 = EDGE_CURVE ( 'NONE', #241, #21, #30, .T. ) ;
#130 = CARTESIAN_POINT ( 'NONE',  ( 0.000000000000000000, 0.000000000000000000, 160.0000000000000000 ) ) ;
#131 = AXIS2_PLACEMENT_3D ( 'NONE', #71, #77, #159 ) ;
#132 = DIRECTION ( 'NONE',  ( -0.000000000000000000, -0.000000000000000000, -1.000000000000000000 ) ) ;
#133 = DIRECTION ( 'NONE',  ( 0.000000000000000000, 0.000000000000000000, 1.000000000000000000 ) ) ;
#134 = CIRCLE ( 'NONE', #63, 0.7500000000000001110 ) ;
#135 = EDGE_LOOP ( 'NONE', ( #43, #56, #96, #238 ) ) ;
#136 = ORIENTED_EDGE ( 'NONE', *, *, #174, .T. ) ;
#137 = PERSON_AND_ORGANIZATION ( #244, #231 ) ;
#138 = ORIENTED_EDGE ( 'NONE', *, *, #196, .F. ) ;
#139 = DATE_AND_TIME ( #163, #164 ) ;
#140 = ORIENTED_EDGE ( 'NONE', *, *, #76, .T. ) ;
#141 = ADVANCED_FACE ( 'NONE', ( #142 ), #50, .T. ) ;
#142 = FACE_OUTER_BOUND ( 'NONE', #7, .T. ) ;
#143 = CARTESIAN_POINT ( 'NONE',  ( 0.7500000000000001110, 9.184850993605150903E-17, 160.0000000000000000 ) ) ;
#144 = PRODUCT ( '68c9', '68c9', '', ( #6 ) ) ;
#145 = SHAPE_DEFINITION_REPRESENTATION ( #83, #117 ) ;
#146 = AXIS2_PLACEMENT_3D ( 'NONE', #151, #187, #84 ) ;
#147 = FACE_OUTER_BOUND ( 'NONE', #156, .T. ) ;
#148 = PLANE ( 'NONE',  #74 ) ;
#149 = COORDINATED_UNIVERSAL_TIME_OFFSET ( 1, 0, .AHEAD. ) ;
#150 = ADVANCED_FACE ( 'NONE', ( #173, #46 ), #108, .T. ) ;
#151 = CARTESIAN_POINT ( 'NONE',  ( 0.000000000000000000, 0.000000000000000000, 1.500000000000000000 ) ) ;
#152 = DIRECTION ( 'NONE',  ( 0.000000000000000000, 0.000000000000000000, 1.000000000000000000 ) ) ;
#153 = APPLICATION_CONTEXT ( 'configuration controlled 3d designs of mechanical parts and assemblies' ) ;
#154 = AXIS2_PLACEMENT_3D ( 'NONE', #15, #123, #206 ) ;
#155 = EDGE_CURVE ( 'NONE', #185, #179, #199, .T. ) ;
#156 = EDGE_LOOP ( 'NONE', ( #138, #136, #237, #99 ) ) ;
#157 = ORIENTED_EDGE ( 'NONE', *, *, #230, .F. ) ;
#158 = PERSON_AND_ORGANIZATION_ROLE ( 'creator' ) ;
#159 = DIRECTION ( 'NONE',  ( 1.000000000000000000, 0.000000000000000000, 0.000000000000000000 ) ) ;
#160 = CARTESIAN_POINT ( 'NONE',  ( 0.000000000000000000, 0.000000000000000000, 0.000000000000000000 ) ) ;
#161 = PERSON_AND_ORGANIZATION_ROLE ( 'creator' ) ;
#162 = VERTEX_POINT ( 'NONE', #125 ) ;
#163 = CALENDAR_DATE ( 2023, 12, 2 ) ;
#164 = LOCAL_TIME ( 13, 56, 25.00000000000000000, #180 ) ;
#165 = CC_DESIGN_PERSON_AND_ORGANIZATION_ASSIGNMENT ( #126, #252, ( #218 ) ) ;
#166 = DIRECTION ( 'NONE',  ( 1.000000000000000000, 0.000000000000000000, 0.000000000000000000 ) ) ;
#167 = CARTESIAN_POINT ( 'NONE',  ( 1.500000000000000222, 1.836970198721030181E-16, 1.500000000000000000 ) ) ;
#168 = EDGE_CURVE ( 'NONE', #179, #241, #247, .T. ) ;
#169 = CARTESIAN_POINT ( 'NONE',  ( -0.7500000000000001110, 0.000000000000000000, 160.0000000000000000 ) ) ;
#170 = AXIS2_PLACEMENT_3D ( 'NONE', #47, #191, #48 ) ;
#171 = LOCAL_TIME ( 13, 56, 25.00000000000000000, #120 ) ;
#172 = FACE_OUTER_BOUND ( 'NONE', #201, .T. ) ;
#173 = FACE_BOUND ( 'NONE', #181, .T. ) ;
#174 = EDGE_CURVE ( 'NONE', #61, #162, #107, .T. ) ;
#175 = CARTESIAN_POINT ( 'NONE',  ( -0.7500000000000001110, 0.000000000000000000, 160.0000000000000000 ) ) ;
#176 = CC_DESIGN_APPROVAL ( #186, ( #198 ) ) ;
#177 = UNCERTAINTY_MEASURE_WITH_UNIT (LENGTH_MEASURE( 1.000000000000000082E-05 ), #39, 'distance_accuracy_value', 'NONE');
#178 = AXIS2_PLACEMENT_3D ( 'NONE', #225, #90, #229 ) ;
#179 = VERTEX_POINT ( 'NONE', #167 ) ;
#180 = COORDINATED_UNIVERSAL_TIME_OFFSET ( 1, 0, .AHEAD. ) ;
#181 = EDGE_LOOP ( 'NONE', ( #157, #200 ) ) ;
#182 = PERSON_AND_ORGANIZATION ( #244, #231 ) ;
#183 = EDGE_LOOP ( 'NONE', ( #81, #78 ) ) ;
#184 = CALENDAR_DATE ( 2023, 12, 2 ) ;
#185 = VERTEX_POINT ( 'NONE', #127 ) ;
#186 = APPROVAL ( #103, 'NEURÈENÝ' ) ;
#187 = DIRECTION ( 'NONE',  ( 0.000000000000000000, 0.000000000000000000, 1.000000000000000000 ) ) ;
#188 = PRODUCT_DEFINITION_FORMATION_WITH_SPECIFIED_SOURCE ( 'LIBOVOLNÝ', '', #144, .NOT_KNOWN. ) ;
#189 = APPLICATION_PROTOCOL_DEFINITION ( 'international standard', 'config_control_design', 1994, #94 ) ;
#190 = CARTESIAN_POINT ( 'NONE',  ( 0.7500000000000001110, 9.184850993605150903E-17, 160.0000000000000000 ) ) ;
#191 = DIRECTION ( 'NONE',  ( 0.000000000000000000, 0.000000000000000000, 1.000000000000000000 ) ) ;
#192 = CALENDAR_DATE ( 2023, 12, 2 ) ;
#193 = AXIS2_PLACEMENT_3D ( 'NONE', #160, #239, #60 ) ;
#194 = FACE_OUTER_BOUND ( 'NONE', #135, .T. ) ;
#195 = CYLINDRICAL_SURFACE ( 'NONE', #226, 1.500000000000000222 ) ;
#196 = EDGE_CURVE ( 'NONE', #61, #119, #134, .T. ) ;
#197 = DATE_AND_TIME ( #192, #204 ) ;
#198 = PRODUCT_DEFINITION ( 'NEZNÁMÝ', '', #188, #75 ) ;
#199 = CIRCLE ( 'NONE', #154, 1.500000000000000222 ) ;
#200 = ORIENTED_EDGE ( 'NONE', *, *, #105, .F. ) ;
#201 = EDGE_LOOP ( 'NONE', ( #118, #202, #10, #222 ) ) ;
#202 = ORIENTED_EDGE ( 'NONE', *, *, #91, .F. ) ;
#203 = CALENDAR_DATE ( 2023, 12, 2 ) ;
#204 = LOCAL_TIME ( 13, 56, 25.00000000000000000, #33 ) ;
#205 = ORIENTED_EDGE ( 'NONE', *, *, #168, .F. ) ;
#206 = DIRECTION ( 'NONE',  ( 1.000000000000000000, 0.000000000000000000, 0.000000000000000000 ) ) ;
#207 = PERSON_AND_ORGANIZATION_ROLE ( 'design_owner' ) ;
#208 = CARTESIAN_POINT ( 'NONE',  ( 1.500000000000000222, 1.836970198721030181E-16, 1.500000000000000000 ) ) ;
#209 = CARTESIAN_POINT ( 'NONE',  ( -0.7500000000000001110, 0.000000000000000000, 1.500000000000000000 ) ) ;
#210 = DIRECTION ( 'NONE',  ( -0.000000000000000000, -0.000000000000000000, -1.000000000000000000 ) ) ;
#211 = CARTESIAN_POINT ( 'NONE',  ( 0.000000000000000000, 0.000000000000000000, 160.0000000000000000 ) ) ;
#212 = APPROVAL_ROLE ( '' ) ;
#213 = EDGE_CURVE ( 'NONE', #119, #40, #18, .T. ) ;
#214 = CARTESIAN_POINT ( 'NONE',  ( 1.500000000000000222, 1.836970198721030181E-16, 0.000000000000000000 ) ) ;
#215 = AXIS2_PLACEMENT_3D ( 'NONE', #211, #245, #110 ) ;
#216 = AXIS2_PLACEMENT_3D ( 'NONE', #32, #223, #111 ) ;
#217 = EDGE_CURVE ( 'NONE', #185, #21, #232, .T. ) ;
#218 = SECURITY_CLASSIFICATION ( '', '', #44 ) ;
#219 = ORIENTED_EDGE ( 'NONE', *, *, #129, .F. ) ;
#220 = ORIENTED_EDGE ( 'NONE', *, *, #114, .T. ) ;
#221 = APPROVAL_ROLE ( '' ) ;
#222 = ORIENTED_EDGE ( 'NONE', *, *, #230, .T. ) ;
#223 = DIRECTION ( 'NONE',  ( -0.000000000000000000, -0.000000000000000000, -1.000000000000000000 ) ) ;
#224 = CC_DESIGN_DATE_AND_TIME_ASSIGNMENT ( #89, #31, ( #218 ) ) ;
#225 = CARTESIAN_POINT ( 'NONE',  ( 0.000000000000000000, 0.000000000000000000, 1.500000000000000000 ) ) ;
#226 = AXIS2_PLACEMENT_3D ( 'NONE', #13, #253, #104 ) ;
#227 = CARTESIAN_POINT ( 'NONE',  ( 0.000000000000000000, 0.000000000000000000, 0.000000000000000000 ) ) ;
#228 = CYLINDRICAL_SURFACE ( 'NONE', #9, 0.7500000000000001110 ) ;
#229 = DIRECTION ( 'NONE',  ( 1.000000000000000000, 0.000000000000000000, 0.000000000000000000 ) ) ;
#230 = EDGE_CURVE ( 'NONE', #40, #162, #115, .T. ) ;
#231 = ORGANIZATION ( 'NEURÈENÝ', 'NEURÈENÝ', '' ) ;
#232 = LINE ( 'NONE', #54, #26 ) ;
#233 = CARTESIAN_POINT ( 'NONE',  ( 0.000000000000000000, 0.000000000000000000, 1.500000000000000000 ) ) ;
#234 = CC_DESIGN_PERSON_AND_ORGANIZATION_ASSIGNMENT ( #240, #62, ( #188 ) ) ;
#235 = CIRCLE ( 'NONE', #35, 0.7500000000000001110 ) ;
#236 = CC_DESIGN_APPROVAL ( #16, ( #188 ) ) ;
#237 = ORIENTED_EDGE ( 'NONE', *, *, #105, .T. ) ;
#238 = ORIENTED_EDGE ( 'NONE', *, *, #217, .F. ) ;
#239 = DIRECTION ( 'NONE',  ( 0.000000000000000000, 0.000000000000000000, 1.000000000000000000 ) ) ;
#240 = PERSON_AND_ORGANIZATION ( #244, #231 ) ;
#241 = VERTEX_POINT ( 'NONE', #214 ) ;
#242 = APPROVAL_STATUS ( 'not_yet_approved' ) ;
#243 = ORIENTED_EDGE ( 'NONE', *, *, #155, .F. ) ;
#244 = PERSON ( 'NEURÈENÝ', 'NEURÈENÝ', 'NEURÈENÝ', ('NEURÈENÝ'), ('NEURÈENÝ'), ('NEURÈENÝ') ) ;
#245 = DIRECTION ( 'NONE',  ( -0.000000000000000000, -0.000000000000000000, -1.000000000000000000 ) ) ;
#246 = APPROVAL_DATE_TIME ( #8, #186 ) ;
#247 = LINE ( 'NONE', #208, #255 ) ;
#248 = AXIS2_PLACEMENT_3D ( 'NONE', #227, #12, #166 ) ;
#249 = CARTESIAN_POINT ( 'NONE',  ( 0.000000000000000000, 0.000000000000000000, 160.0000000000000000 ) ) ;
#250 = VECTOR ( 'NONE', #132, 1000.000000000000000 ) ;
#251 = CC_DESIGN_SECURITY_CLASSIFICATION ( #218, ( #188 ) ) ;
#252 = PERSON_AND_ORGANIZATION_ROLE ( 'classification_officer' ) ;
#253 = DIRECTION ( 'NONE',  ( -0.000000000000000000, -0.000000000000000000, -1.000000000000000000 ) ) ;
#254 = DIRECTION ( 'NONE',  ( -0.000000000000000000, -0.000000000000000000, -1.000000000000000000 ) ) ;
#255 = VECTOR ( 'NONE', #27, 1000.000000000000000 ) ;
ENDSEC;
END-ISO-10303-21;
