ISO-10303-21;
HEADER;
FILE_DESCRIPTION (( 'STEP AP203' ),
    '1' );
FILE_NAME ('f864.STEP',
    '2023-02-12T10:53:04',
    ( '' ),
    ( '' ),
    'SwSTEP 2.0',
    'SolidWorks 2019',
    '' );
FILE_SCHEMA (( 'CONFIG_CONTROL_DESIGN' ));
ENDSEC;

DATA;
#1 =( NAMED_UNIT ( * ) PLANE_ANGLE_UNIT ( ) SI_UNIT ( $, .RADIAN. ) );
#2 = ADVANCED_FACE ( 'NONE', ( #108 ), #25, .T. ) ;
#3 = ORIENTED_EDGE ( 'NONE', *, *, #43, .T. ) ;
#4 = EDGE_CURVE ( 'NONE', #59, #209, #227, .T. ) ;
#5 = PERSON_AND_ORGANIZATION ( #127, #101 ) ;
#6 = CIRCLE ( 'NONE', #223, 11.00000000000000000 ) ;
#7 = DIRECTION ( 'NONE',  ( -0.000000000000000000, -0.000000000000000000, -1.000000000000000000 ) ) ;
#8 = VECTOR ( 'NONE', #244, 1000.000000000000000 ) ;
#9 = ORIENTED_EDGE ( 'NONE', *, *, #54, .T. ) ;
#10 = ORIENTED_EDGE ( 'NONE', *, *, #195, .F. ) ;
#11 = ADVANCED_FACE ( 'NONE', ( #64 ), #245, .T. ) ;
#12 = CYLINDRICAL_SURFACE ( 'NONE', #205, 11.00000000000000000 ) ;
#13 = CIRCLE ( 'NONE', #61, 7.000000000000000888 ) ;
#14 = DIRECTION ( 'NONE',  ( 0.000000000000000000, 0.000000000000000000, 1.000000000000000000 ) ) ;
#15 = LINE ( 'NONE', #169, #228 ) ;
#16 = CARTESIAN_POINT ( 'NONE',  ( -7.000000000000000888, 0.000000000000000000, 7.000000000000000000 ) ) ;
#17 = DATE_TIME_ROLE ( 'creation_date' ) ;
#18 = CALENDAR_DATE ( 2023, 12, 2 ) ;
#19 = APPROVAL ( #125, 'NEURÈENÝ' ) ;
#20 = ORIENTED_EDGE ( 'NONE', *, *, #195, .T. ) ;
#21 = CC_DESIGN_PERSON_AND_ORGANIZATION_ASSIGNMENT ( #219, #179, ( #220 ) ) ;
#22 = VECTOR ( 'NONE', #7, 1000.000000000000000 ) ;
#23 = FACE_BOUND ( 'NONE', #225, .T. ) ;
#24 = AXIS2_PLACEMENT_3D ( 'NONE', #252, #196, #91 ) ;
#25 = CYLINDRICAL_SURFACE ( 'NONE', #39, 7.000000000000000888 ) ;
#26 = CARTESIAN_POINT ( 'NONE',  ( 0.000000000000000000, 0.000000000000000000, 7.000000000000000000 ) ) ;
#27 = CIRCLE ( 'NONE', #120, 11.00000000000000000 ) ;
#28 = VERTEX_POINT ( 'NONE', #130 ) ;
#29 = AXIS2_PLACEMENT_3D ( 'NONE', #198, #239, #77 ) ;
#30 = CARTESIAN_POINT ( 'NONE',  ( 0.000000000000000000, 0.000000000000000000, 7.000000000000000000 ) ) ;
#31 = CARTESIAN_POINT ( 'NONE',  ( 7.000000000000000888, 8.572527594031474176E-16, 7.000000000000000000 ) ) ;
#32 = CARTESIAN_POINT ( 'NONE',  ( 11.00000000000000000, 1.347111479062088405E-15, 7.000000000000000000 ) ) ;
#33 = ORIENTED_EDGE ( 'NONE', *, *, #246, .T. ) ;
#34 = DIRECTION ( 'NONE',  ( 1.000000000000000000, 0.000000000000000000, 0.000000000000000000 ) ) ;
#35 = EDGE_LOOP ( 'NONE', ( #165, #45 ) ) ;
#36 = PERSON_AND_ORGANIZATION ( #127, #101 ) ;
#37 = PERSON_AND_ORGANIZATION ( #127, #101 ) ;
#38 = PERSON_AND_ORGANIZATION ( #127, #101 ) ;
#39 = AXIS2_PLACEMENT_3D ( 'NONE', #84, #147, #107 ) ;
#40 = PERSON_AND_ORGANIZATION_ROLE ( 'design_owner' ) ;
#41 = ORIENTED_EDGE ( 'NONE', *, *, #43, .F. ) ;
#42 = ORIENTED_EDGE ( 'NONE', *, *, #174, .F. ) ;
#43 = EDGE_CURVE ( 'NONE', #28, #237, #63, .T. ) ;
#44 = ORIENTED_EDGE ( 'NONE', *, *, #116, .F. ) ;
#45 = ORIENTED_EDGE ( 'NONE', *, *, #131, .F. ) ;
#46 = APPROVAL ( #55, 'NEURÈENÝ' ) ;
#47 = DIRECTION ( 'NONE',  ( 0.000000000000000000, 0.000000000000000000, 1.000000000000000000 ) ) ;
#48 = CARTESIAN_POINT ( 'NONE',  ( 11.00000000000000000, 1.347111479062088405E-15, 0.000000000000000000 ) ) ;
#49 = CARTESIAN_POINT ( 'NONE',  ( 0.000000000000000000, 0.000000000000000000, 7.000000000000000000 ) ) ;
#50 =( NAMED_UNIT ( * ) SI_UNIT ( $, .STERADIAN. ) SOLID_ANGLE_UNIT ( ) );
#51 = ORIENTED_EDGE ( 'NONE', *, *, #151, .T. ) ;
#52 = APPROVAL_DATE_TIME ( #76, #46 ) ;
#53 = APPROVAL_PERSON_ORGANIZATION ( #5, #157, #240 ) ;
#54 = EDGE_CURVE ( 'NONE', #204, #247, #83, .T. ) ;
#55 = APPROVAL_STATUS ( 'not_yet_approved' ) ;
#56 = COORDINATED_UNIVERSAL_TIME_OFFSET ( 1, 0, .AHEAD. ) ;
#57 = APPROVAL_DATE_TIME ( #138, #157 ) ;
#58 = CC_DESIGN_APPROVAL ( #46, ( #220 ) ) ;
#59 = VERTEX_POINT ( 'NONE', #229 ) ;
#60 = FACE_OUTER_BOUND ( 'NONE', #242, .T. ) ;
#61 = AXIS2_PLACEMENT_3D ( 'NONE', #217, #14, #34 ) ;
#62 = CC_DESIGN_PERSON_AND_ORGANIZATION_ASSIGNMENT ( #123, #40, ( #200 ) ) ;
#63 = LINE ( 'NONE', #146, #162 ) ;
#64 = FACE_OUTER_BOUND ( 'NONE', #97, .T. ) ;
#65 = ORIENTED_EDGE ( 'NONE', *, *, #207, .T. ) ;
#66 = ADVANCED_FACE ( 'NONE', ( #23, #60 ), #208, .T. ) ;
#67 = LOCAL_TIME ( 11, 53, 4.000000000000000000, #56 ) ;
#68 = FACE_OUTER_BOUND ( 'NONE', #86, .T. ) ;
#69 = DESIGN_CONTEXT ( 'detailed design', #253, 'design' ) ;
#70 = DIRECTION ( 'NONE',  ( 1.000000000000000000, 0.000000000000000000, 0.000000000000000000 ) ) ;
#71 = DIRECTION ( 'NONE',  ( 1.000000000000000000, 0.000000000000000000, -0.000000000000000000 ) ) ;
#72 = FACE_OUTER_BOUND ( 'NONE', #153, .T. ) ;
#73 = DATE_AND_TIME ( #79, #173 ) ;
#74 = PRODUCT_RELATED_PRODUCT_CATEGORY ( 'detail', '', ( #200 ) ) ;
#75 = APPLICATION_PROTOCOL_DEFINITION ( 'international standard', 'config_control_design', 1994, #178 ) ;
#76 = DATE_AND_TIME ( #18, #234 ) ;
#77 = DIRECTION ( 'NONE',  ( 1.000000000000000000, 0.000000000000000000, 0.000000000000000000 ) ) ;
#78 = CIRCLE ( 'NONE', #139, 7.000000000000000888 ) ;
#79 = CALENDAR_DATE ( 2023, 12, 2 ) ;
#80 = CC_DESIGN_PERSON_AND_ORGANIZATION_ASSIGNMENT ( #36, #158, ( #124 ) ) ;
#81 = CC_DESIGN_APPROVAL ( #157, ( #89 ) ) ;
#82 = ORIENTED_EDGE ( 'NONE', *, *, #251, .T. ) ;
#83 = LINE ( 'NONE', #145, #8 ) ;
#84 = CARTESIAN_POINT ( 'NONE',  ( 0.000000000000000000, 0.000000000000000000, 200.0000000000000000 ) ) ;
#85 = DIRECTION ( 'NONE',  ( -0.000000000000000000, -0.000000000000000000, -1.000000000000000000 ) ) ;
#86 = EDGE_LOOP ( 'NONE', ( #109, #65, #243, #105 ) ) ;
#87 = AXIS2_PLACEMENT_3D ( 'NONE', #214, #213, #150 ) ;
#88 = PLANE ( 'NONE',  #187 ) ;
#89 = SECURITY_CLASSIFICATION ( '', '', #99 ) ;
#90 = DIRECTION ( 'NONE',  ( 0.000000000000000000, 0.000000000000000000, 1.000000000000000000 ) ) ;
#91 = DIRECTION ( 'NONE',  ( -1.000000000000000000, 0.000000000000000000, 0.000000000000000000 ) ) ;
#92 = CC_DESIGN_PERSON_AND_ORGANIZATION_ASSIGNMENT ( #38, #102, ( #89 ) ) ;
#93 = CIRCLE ( 'NONE', #87, 7.000000000000000888 ) ;
#94 = EDGE_LOOP ( 'NONE', ( #41, #44, #118, #176 ) ) ;
#95 = LOCAL_TIME ( 11, 53, 4.000000000000000000, #141 ) ;
#96 = CYLINDRICAL_SURFACE ( 'NONE', #148, 7.000000000000000888 ) ;
#97 = EDGE_LOOP ( 'NONE', ( #180, #51 ) ) ;
#98 = APPROVAL_ROLE ( '' ) ;
#99 = SECURITY_CLASSIFICATION_LEVEL ( 'unclassified' ) ;
#100 = PRODUCT_DEFINITION_SHAPE ( 'NONE', 'NONE',  #220 ) ;
#101 = ORGANIZATION ( 'NEURÈENÝ', 'NEURÈENÝ', '' ) ;
#102 = PERSON_AND_ORGANIZATION_ROLE ( 'classification_officer' ) ;
#103 = COORDINATED_UNIVERSAL_TIME_OFFSET ( 1, 0, .AHEAD. ) ;
#104 = PERSON_AND_ORGANIZATION ( #127, #101 ) ;
#105 = ORIENTED_EDGE ( 'NONE', *, *, #54, .F. ) ;
#106 = ADVANCED_FACE ( 'NONE', ( #170 ), #88, .F. ) ;
#107 = DIRECTION ( 'NONE',  ( -1.000000000000000000, 0.000000000000000000, 0.000000000000000000 ) ) ;
#108 = FACE_OUTER_BOUND ( 'NONE', #94, .T. ) ;
#109 = ORIENTED_EDGE ( 'NONE', *, *, #251, .F. ) ;
#110 =( GEOMETRIC_REPRESENTATION_CONTEXT ( 3 ) GLOBAL_UNCERTAINTY_ASSIGNED_CONTEXT ( ( #231 ) ) GLOBAL_UNIT_ASSIGNED_CONTEXT ( ( #255, #1, #50 ) ) REPRESENTATION_CONTEXT ( 'NONE', 'WORKASPACE' ) );
#111 = ORIENTED_EDGE ( 'NONE', *, *, #4, .F. ) ;
#112 = CARTESIAN_POINT ( 'NONE',  ( 0.000000000000000000, 0.000000000000000000, 200.0000000000000000 ) ) ;
#113 = AXIS2_PLACEMENT_3D ( 'NONE', #26, #156, #236 ) ;
#114 = CARTESIAN_POINT ( 'NONE',  ( 0.000000000000000000, 0.000000000000000000, 7.000000000000000000 ) ) ;
#115 = DIRECTION ( 'NONE',  ( 0.000000000000000000, 0.000000000000000000, 1.000000000000000000 ) ) ;
#116 = EDGE_CURVE ( 'NONE', #59, #28, #78, .T. ) ;
#117 = DIRECTION ( 'NONE',  ( 1.000000000000000000, 0.000000000000000000, 0.000000000000000000 ) ) ;
#118 = ORIENTED_EDGE ( 'NONE', *, *, #4, .T. ) ;
#119 = CARTESIAN_POINT ( 'NONE',  ( 0.000000000000000000, 0.000000000000000000, 0.000000000000000000 ) ) ;
#120 = AXIS2_PLACEMENT_3D ( 'NONE', #154, #134, #190 ) ;
#121 = ADVANCED_FACE ( 'NONE', ( #72 ), #96, .T. ) ;
#122 = PERSON_AND_ORGANIZATION_ROLE ( 'design_supplier' ) ;
#123 = PERSON_AND_ORGANIZATION ( #127, #101 ) ;
#124 = PRODUCT_DEFINITION_FORMATION_WITH_SPECIFIED_SOURCE ( 'LIBOVOLNÝ', '', #200, .NOT_KNOWN. ) ;
#125 = APPROVAL_STATUS ( 'not_yet_approved' ) ;
#126 = ORIENTED_EDGE ( 'NONE', *, *, #151, .F. ) ;
#127 = PERSON ( 'NEURÈENÝ', 'NEURÈENÝ', 'NEURÈENÝ', ('NEURÈENÝ'), ('NEURÈENÝ'), ('NEURÈENÝ') ) ;
#128 = ORIENTED_EDGE ( 'NONE', *, *, #207, .F. ) ;
#129 = CLOSED_SHELL ( 'NONE', ( #121, #211, #143, #66, #106, #2, #11 ) ) ;
#130 = CARTESIAN_POINT ( 'NONE',  ( 7.000000000000000888, 8.572527594031474176E-16, 200.0000000000000000 ) ) ;
#131 = EDGE_CURVE ( 'NONE', #167, #247, #27, .T. ) ;
#132 = DIRECTION ( 'NONE',  ( -0.000000000000000000, -0.000000000000000000, -1.000000000000000000 ) ) ;
#133 = CARTESIAN_POINT ( 'NONE',  ( 0.000000000000000000, 0.000000000000000000, 0.000000000000000000 ) ) ;
#134 = DIRECTION ( 'NONE',  ( 0.000000000000000000, 0.000000000000000000, 1.000000000000000000 ) ) ;
#135 = APPROVAL_PERSON_ORGANIZATION ( #104, #46, #98 ) ;
#136 = DIRECTION ( 'NONE',  ( 1.000000000000000000, 0.000000000000000000, 0.000000000000000000 ) ) ;
#137 = DIRECTION ( 'NONE',  ( 0.000000000000000000, 0.000000000000000000, 1.000000000000000000 ) ) ;
#138 = DATE_AND_TIME ( #177, #67 ) ;
#139 = AXIS2_PLACEMENT_3D ( 'NONE', #171, #137, #193 ) ;
#140 = AXIS2_PLACEMENT_3D ( 'NONE', #114, #191, #70 ) ;
#141 = COORDINATED_UNIVERSAL_TIME_OFFSET ( 1, 0, .AHEAD. ) ;
#142 = PERSON_AND_ORGANIZATION ( #127, #101 ) ;
#143 = ADVANCED_FACE ( 'NONE', ( #175 ), #12, .T. ) ;
#144 = SHAPE_DEFINITION_REPRESENTATION ( #100, #233 ) ;
#145 = CARTESIAN_POINT ( 'NONE',  ( -11.00000000000000000, 0.000000000000000000, 7.000000000000000000 ) ) ;
#146 = CARTESIAN_POINT ( 'NONE',  ( 7.000000000000000888, 8.572527594031474176E-16, 200.0000000000000000 ) ) ;
#147 = DIRECTION ( 'NONE',  ( -0.000000000000000000, -0.000000000000000000, -1.000000000000000000 ) ) ;
#148 = AXIS2_PLACEMENT_3D ( 'NONE', #112, #132, #194 ) ;
#149 = DIRECTION ( 'NONE',  ( 1.000000000000000000, 0.000000000000000000, -0.000000000000000000 ) ) ;
#150 = DIRECTION ( 'NONE',  ( 1.000000000000000000, 0.000000000000000000, 0.000000000000000000 ) ) ;
#151 = EDGE_CURVE ( 'NONE', #28, #59, #93, .T. ) ;
#152 = CYLINDRICAL_SURFACE ( 'NONE', #24, 11.00000000000000000 ) ;
#153 = EDGE_LOOP ( 'NONE', ( #126, #3, #20, #111 ) ) ;
#154 = CARTESIAN_POINT ( 'NONE',  ( 0.000000000000000000, 0.000000000000000000, 0.000000000000000000 ) ) ;
#155 = ORIENTED_EDGE ( 'NONE', *, *, #246, .F. ) ;
#156 = DIRECTION ( 'NONE',  ( 0.000000000000000000, 0.000000000000000000, 1.000000000000000000 ) ) ;
#157 = APPROVAL ( #182, 'NEURÈENÝ' ) ;
#158 = PERSON_AND_ORGANIZATION_ROLE ( 'creator' ) ;
#159 = MECHANICAL_CONTEXT ( 'NONE', #178, 'mechanical' ) ;
#160 = COORDINATED_UNIVERSAL_TIME_OFFSET ( 1, 0, .AHEAD. ) ;
#161 = COORDINATED_UNIVERSAL_TIME_OFFSET ( 1, 0, .AHEAD. ) ;
#162 = VECTOR ( 'NONE', #85, 1000.000000000000000 ) ;
#163 = APPROVAL_ROLE ( '' ) ;
#164 = ORIENTED_EDGE ( 'NONE', *, *, #224, .T. ) ;
#165 = ORIENTED_EDGE ( 'NONE', *, *, #224, .F. ) ;
#166 = DIRECTION ( 'NONE',  ( 0.000000000000000000, 0.000000000000000000, 1.000000000000000000 ) ) ;
#167 = VERTEX_POINT ( 'NONE', #48 ) ;
#168 = CARTESIAN_POINT ( 'NONE',  ( 0.000000000000000000, 0.000000000000000000, 200.0000000000000000 ) ) ;
#169 = CARTESIAN_POINT ( 'NONE',  ( 11.00000000000000000, 1.347111479062088405E-15, 7.000000000000000000 ) ) ;
#170 = FACE_OUTER_BOUND ( 'NONE', #35, .T. ) ;
#171 = CARTESIAN_POINT ( 'NONE',  ( 0.000000000000000000, 0.000000000000000000, 200.0000000000000000 ) ) ;
#172 = CARTESIAN_POINT ( 'NONE',  ( -11.00000000000000000, 0.000000000000000000, 0.000000000000000000 ) ) ;
#173 = LOCAL_TIME ( 11, 53, 4.000000000000000000, #161 ) ;
#174 = EDGE_CURVE ( 'NONE', #209, #237, #13, .T. ) ;
#175 = FACE_OUTER_BOUND ( 'NONE', #226, .T. ) ;
#176 = ORIENTED_EDGE ( 'NONE', *, *, #174, .T. ) ;
#177 = CALENDAR_DATE ( 2023, 12, 2 ) ;
#178 = APPLICATION_CONTEXT ( 'configuration controlled 3d designs of mechanical parts and assemblies' ) ;
#179 = PERSON_AND_ORGANIZATION_ROLE ( 'creator' ) ;
#180 = ORIENTED_EDGE ( 'NONE', *, *, #116, .T. ) ;
#181 = CIRCLE ( 'NONE', #140, 11.00000000000000000 ) ;
#182 = APPROVAL_STATUS ( 'not_yet_approved' ) ;
#183 = CALENDAR_DATE ( 2023, 12, 2 ) ;
#184 = DATE_AND_TIME ( #222, #95 ) ;
#185 = CC_DESIGN_SECURITY_CLASSIFICATION ( #89, ( #124 ) ) ;
#186 = CARTESIAN_POINT ( 'NONE',  ( -7.000000000000000888, 0.000000000000000000, 200.0000000000000000 ) ) ;
#187 = AXIS2_PLACEMENT_3D ( 'NONE', #119, #230, #71 ) ;
#188 = CC_DESIGN_PERSON_AND_ORGANIZATION_ASSIGNMENT ( #37, #122, ( #124 ) ) ;
#189 = MANIFOLD_SOLID_BREP ( 'Pøidat vysunutím3', #129 ) ;
#190 = DIRECTION ( 'NONE',  ( 1.000000000000000000, 0.000000000000000000, 0.000000000000000000 ) ) ;
#191 = DIRECTION ( 'NONE',  ( 0.000000000000000000, 0.000000000000000000, 1.000000000000000000 ) ) ;
#192 = CIRCLE ( 'NONE', #215, 11.00000000000000000 ) ;
#193 = DIRECTION ( 'NONE',  ( 1.000000000000000000, 0.000000000000000000, 0.000000000000000000 ) ) ;
#194 = DIRECTION ( 'NONE',  ( -1.000000000000000000, 0.000000000000000000, 0.000000000000000000 ) ) ;
#195 = EDGE_CURVE ( 'NONE', #237, #209, #248, .T. ) ;
#196 = DIRECTION ( 'NONE',  ( -0.000000000000000000, -0.000000000000000000, -1.000000000000000000 ) ) ;
#197 = LOCAL_TIME ( 11, 53, 4.000000000000000000, #160 ) ;
#198 = CARTESIAN_POINT ( 'NONE',  ( 0.000000000000000000, 0.000000000000000000, 0.000000000000000000 ) ) ;
#199 = DATE_AND_TIME ( #183, #197 ) ;
#200 = PRODUCT ( 'f864', 'f864', '', ( #159 ) ) ;
#201 = APPLICATION_PROTOCOL_DEFINITION ( 'international standard', 'config_control_design', 1994, #253 ) ;
#202 = DATE_TIME_ROLE ( 'classification_date' ) ;
#203 = CC_DESIGN_DATE_AND_TIME_ASSIGNMENT ( #199, #202, ( #89 ) ) ;
#204 = VERTEX_POINT ( 'NONE', #250 ) ;
#205 = AXIS2_PLACEMENT_3D ( 'NONE', #49, #216, #212 ) ;
#206 = VERTEX_POINT ( 'NONE', #32 ) ;
#207 = EDGE_CURVE ( 'NONE', #206, #167, #15, .T. ) ;
#208 = PLANE ( 'NONE',  #113 ) ;
#209 = VERTEX_POINT ( 'NONE', #16 ) ;
#210 = AXIS2_PLACEMENT_3D ( 'NONE', #30, #47, #232 ) ;
#211 = ADVANCED_FACE ( 'NONE', ( #68 ), #152, .T. ) ;
#212 = DIRECTION ( 'NONE',  ( -1.000000000000000000, 0.000000000000000000, 0.000000000000000000 ) ) ;
#213 = DIRECTION ( 'NONE',  ( 0.000000000000000000, 0.000000000000000000, 1.000000000000000000 ) ) ;
#214 = CARTESIAN_POINT ( 'NONE',  ( 0.000000000000000000, 0.000000000000000000, 200.0000000000000000 ) ) ;
#215 = AXIS2_PLACEMENT_3D ( 'NONE', #235, #90, #136 ) ;
#216 = DIRECTION ( 'NONE',  ( -0.000000000000000000, -0.000000000000000000, -1.000000000000000000 ) ) ;
#217 = CARTESIAN_POINT ( 'NONE',  ( 0.000000000000000000, 0.000000000000000000, 7.000000000000000000 ) ) ;
#218 = AXIS2_PLACEMENT_3D ( 'NONE', #168, #166, #149 ) ;
#219 = PERSON_AND_ORGANIZATION ( #127, #101 ) ;
#220 = PRODUCT_DEFINITION ( 'NEZNÁMÝ', '', #124, #69 ) ;
#221 = APPROVAL_DATE_TIME ( #184, #19 ) ;
#222 = CALENDAR_DATE ( 2023, 12, 2 ) ;
#223 = AXIS2_PLACEMENT_3D ( 'NONE', #133, #115, #117 ) ;
#224 = EDGE_CURVE ( 'NONE', #247, #167, #6, .T. ) ;
#225 = EDGE_LOOP ( 'NONE', ( #42, #10 ) ) ;
#226 = EDGE_LOOP ( 'NONE', ( #128, #155, #9, #164 ) ) ;
#227 = LINE ( 'NONE', #186, #22 ) ;
#228 = VECTOR ( 'NONE', #249, 1000.000000000000000 ) ;
#229 = CARTESIAN_POINT ( 'NONE',  ( -7.000000000000000888, 0.000000000000000000, 200.0000000000000000 ) ) ;
#230 = DIRECTION ( 'NONE',  ( 0.000000000000000000, 0.000000000000000000, 1.000000000000000000 ) ) ;
#231 = UNCERTAINTY_MEASURE_WITH_UNIT (LENGTH_MEASURE( 1.000000000000000082E-05 ), #255, 'distance_accuracy_value', 'NONE');
#232 = DIRECTION ( 'NONE',  ( 1.000000000000000000, 0.000000000000000000, 0.000000000000000000 ) ) ;
#233 = ADVANCED_BREP_SHAPE_REPRESENTATION ( 'f864', ( #189, #29 ), #110 ) ;
#234 = LOCAL_TIME ( 11, 53, 4.000000000000000000, #103 ) ;
#235 = CARTESIAN_POINT ( 'NONE',  ( 0.000000000000000000, 0.000000000000000000, 7.000000000000000000 ) ) ;
#236 = DIRECTION ( 'NONE',  ( 1.000000000000000000, 0.000000000000000000, -0.000000000000000000 ) ) ;
#237 = VERTEX_POINT ( 'NONE', #31 ) ;
#238 = CC_DESIGN_DATE_AND_TIME_ASSIGNMENT ( #73, #17, ( #220 ) ) ;
#239 = DIRECTION ( 'NONE',  ( 0.000000000000000000, 0.000000000000000000, 1.000000000000000000 ) ) ;
#240 = APPROVAL_ROLE ( '' ) ;
#241 = CC_DESIGN_APPROVAL ( #19, ( #124 ) ) ;
#242 = EDGE_LOOP ( 'NONE', ( #33, #82 ) ) ;
#243 = ORIENTED_EDGE ( 'NONE', *, *, #131, .T. ) ;
#244 = DIRECTION ( 'NONE',  ( -0.000000000000000000, -0.000000000000000000, -1.000000000000000000 ) ) ;
#245 = PLANE ( 'NONE',  #218 ) ;
#246 = EDGE_CURVE ( 'NONE', #204, #206, #181, .T. ) ;
#247 = VERTEX_POINT ( 'NONE', #172 ) ;
#248 = CIRCLE ( 'NONE', #210, 7.000000000000000888 ) ;
#249 = DIRECTION ( 'NONE',  ( -0.000000000000000000, -0.000000000000000000, -1.000000000000000000 ) ) ;
#250 = CARTESIAN_POINT ( 'NONE',  ( -11.00000000000000000, 0.000000000000000000, 7.000000000000000000 ) ) ;
#251 = EDGE_CURVE ( 'NONE', #206, #204, #192, .T. ) ;
#252 = CARTESIAN_POINT ( 'NONE',  ( 0.000000000000000000, 0.000000000000000000, 7.000000000000000000 ) ) ;
#253 = APPLICATION_CONTEXT ( 'configuration controlled 3d designs of mechanical parts and assemblies' ) ;
#254 = APPROVAL_PERSON_ORGANIZATION ( #142, #19, #163 ) ;
#255 =( LENGTH_UNIT ( ) NAMED_UNIT ( * ) SI_UNIT ( .MILLI., .METRE. ) );
ENDSEC;
END-ISO-10303-21;
