ISO-10303-21;
HEADER;
FILE_DESCRIPTION (( 'STEP AP203' ),
    '1' );
FILE_NAME ('8dc9.STEP',
    '2023-02-12T12:09:15',
    ( '' ),
    ( '' ),
    'SwSTEP 2.0',
    'SolidWorks 2019',
    '' );
FILE_SCHEMA (( 'CONFIG_CONTROL_DESIGN' ));
ENDSEC;

DATA;
#1 = EDGE_CURVE ( 'NONE', #231, #213, #212, .T. ) ;
#2 = CARTESIAN_POINT ( 'NONE',  ( 0.000000000000000000, 0.000000000000000000, 0.000000000000000000 ) ) ;
#3 = VECTOR ( 'NONE', #65, 1000.000000000000000 ) ;
#4 = CYLINDRICAL_SURFACE ( 'NONE', #141, 6.000000000000000888 ) ;
#5 = DIRECTION ( 'NONE',  ( 1.000000000000000000, 0.000000000000000000, -0.000000000000000000 ) ) ;
#6 = FACE_OUTER_BOUND ( 'NONE', #211, .T. ) ;
#7 = CIRCLE ( 'NONE', #180, 6.000000000000000888 ) ;
#8 = DIRECTION ( 'NONE',  ( 0.000000000000000000, 0.000000000000000000, 1.000000000000000000 ) ) ;
#9 = VERTEX_POINT ( 'NONE', #122 ) ;
#10 = APPLICATION_PROTOCOL_DEFINITION ( 'international standard', 'config_control_design', 1994, #174 ) ;
#11 = UNCERTAINTY_MEASURE_WITH_UNIT (LENGTH_MEASURE( 1.000000000000000082E-05 ), #117, 'distance_accuracy_value', 'NONE');
#12 = APPROVAL_PERSON_ORGANIZATION ( #56, #148, #255 ) ;
#13 = DIRECTION ( 'NONE',  ( 0.000000000000000000, 0.000000000000000000, 1.000000000000000000 ) ) ;
#14 = AXIS2_PLACEMENT_3D ( 'NONE', #66, #8, #222 ) ;
#15 = COORDINATED_UNIVERSAL_TIME_OFFSET ( 1, 0, .AHEAD. ) ;
#16 = DIRECTION ( 'NONE',  ( -0.000000000000000000, -0.000000000000000000, -1.000000000000000000 ) ) ;
#17 = DIRECTION ( 'NONE',  ( 1.000000000000000000, 0.000000000000000000, 0.000000000000000000 ) ) ;
#18 = CALENDAR_DATE ( 2023, 12, 2 ) ;
#19 = VECTOR ( 'NONE', #42, 1000.000000000000000 ) ;
#20 = ORIENTED_EDGE ( 'NONE', *, *, #242, .F. ) ;
#21 = DIRECTION ( 'NONE',  ( 1.000000000000000000, 0.000000000000000000, 0.000000000000000000 ) ) ;
#22 = CARTESIAN_POINT ( 'NONE',  ( 6.000000000000000888, 7.347880794884120722E-16, 5.000000000000000000 ) ) ;
#23 = CIRCLE ( 'NONE', #57, 6.000000000000000888 ) ;
#24 = DIRECTION ( 'NONE',  ( 1.000000000000000000, 0.000000000000000000, 0.000000000000000000 ) ) ;
#25 = CARTESIAN_POINT ( 'NONE',  ( 0.000000000000000000, 0.000000000000000000, 5.000000000000000000 ) ) ;
#26 = DIRECTION ( 'NONE',  ( -0.000000000000000000, -0.000000000000000000, -1.000000000000000000 ) ) ;
#27 = FACE_OUTER_BOUND ( 'NONE', #165, .T. ) ;
#28 = DATE_AND_TIME ( #49, #29 ) ;
#29 = LOCAL_TIME ( 13, 9, 15.00000000000000000, #228 ) ;
#30 = EDGE_CURVE ( 'NONE', #9, #200, #179, .T. ) ;
#31 = ORIENTED_EDGE ( 'NONE', *, *, #1, .T. ) ;
#32 = DIRECTION ( 'NONE',  ( 1.000000000000000000, 0.000000000000000000, 0.000000000000000000 ) ) ;
#33 = EDGE_CURVE ( 'NONE', #128, #61, #23, .T. ) ;
#34 = VECTOR ( 'NONE', #16, 1000.000000000000000 ) ;
#35 = ORIENTED_EDGE ( 'NONE', *, *, #242, .T. ) ;
#36 = PRODUCT_DEFINITION_FORMATION_WITH_SPECIFIED_SOURCE ( 'LIBOVOLNÝ', '', #216, .NOT_KNOWN. ) ;
#37 = DIRECTION ( 'NONE',  ( 1.000000000000000000, 0.000000000000000000, 0.000000000000000000 ) ) ;
#38 = CARTESIAN_POINT ( 'NONE',  ( 3.100000000000000089, 3.796405077356793932E-16, 1000.000000000000000 ) ) ;
#39 = EDGE_CURVE ( 'NONE', #213, #207, #169, .T. ) ;
#40 = FACE_OUTER_BOUND ( 'NONE', #206, .T. ) ;
#41 = DIRECTION ( 'NONE',  ( -1.000000000000000000, 0.000000000000000000, 0.000000000000000000 ) ) ;
#42 = DIRECTION ( 'NONE',  ( -0.000000000000000000, -0.000000000000000000, -1.000000000000000000 ) ) ;
#43 = PERSON ( 'NEURÈENÝ', 'NEURÈENÝ', 'NEURÈENÝ', ('NEURÈENÝ'), ('NEURÈENÝ'), ('NEURÈENÝ') ) ;
#44 = LINE ( 'NONE', #142, #19 ) ;
#45 = EDGE_LOOP ( 'NONE', ( #71, #246 ) ) ;
#46 = AXIS2_PLACEMENT_3D ( 'NONE', #221, #85, #113 ) ;
#47 = DATE_TIME_ROLE ( 'creation_date' ) ;
#48 = EDGE_LOOP ( 'NONE', ( #196, #35 ) ) ;
#49 = CALENDAR_DATE ( 2023, 12, 2 ) ;
#50 = EDGE_CURVE ( 'NONE', #231, #81, #115, .T. ) ;
#51 = DESIGN_CONTEXT ( 'detailed design', #174, 'design' ) ;
#52 = CIRCLE ( 'NONE', #138, 3.100000000000000089 ) ;
#53 = ORIENTED_EDGE ( 'NONE', *, *, #143, .F. ) ;
#54 =( NAMED_UNIT ( * ) SI_UNIT ( $, .STERADIAN. ) SOLID_ANGLE_UNIT ( ) );
#55 = APPROVAL ( #118, 'NEURÈENÝ' ) ;
#56 = PERSON_AND_ORGANIZATION ( #43, #93 ) ;
#57 = AXIS2_PLACEMENT_3D ( 'NONE', #137, #218, #17 ) ;
#58 = COORDINATED_UNIVERSAL_TIME_OFFSET ( 1, 0, .AHEAD. ) ;
#59 = DIRECTION ( 'NONE',  ( -0.000000000000000000, -0.000000000000000000, -1.000000000000000000 ) ) ;
#60 = PERSON_AND_ORGANIZATION_ROLE ( 'creator' ) ;
#61 = VERTEX_POINT ( 'NONE', #22 ) ;
#62 = DIRECTION ( 'NONE',  ( 1.000000000000000000, 0.000000000000000000, 0.000000000000000000 ) ) ;
#63 = EDGE_CURVE ( 'NONE', #128, #9, #78, .T. ) ;
#64 = DIRECTION ( 'NONE',  ( 1.000000000000000000, 0.000000000000000000, -0.000000000000000000 ) ) ;
#65 = DIRECTION ( 'NONE',  ( -0.000000000000000000, -0.000000000000000000, -1.000000000000000000 ) ) ;
#66 = CARTESIAN_POINT ( 'NONE',  ( 0.000000000000000000, 0.000000000000000000, 1000.000000000000000 ) ) ;
#67 = CC_DESIGN_PERSON_AND_ORGANIZATION_ASSIGNMENT ( #226, #229, ( #216 ) ) ;
#68 = FACE_OUTER_BOUND ( 'NONE', #48, .T. ) ;
#69 = DIRECTION ( 'NONE',  ( -1.000000000000000000, 0.000000000000000000, 0.000000000000000000 ) ) ;
#70 = PERSON_AND_ORGANIZATION ( #43, #93 ) ;
#71 = ORIENTED_EDGE ( 'NONE', *, *, #155, .F. ) ;
#72 = AXIS2_PLACEMENT_3D ( 'NONE', #25, #107, #158 ) ;
#73 = APPROVAL_ROLE ( '' ) ;
#74 = EDGE_CURVE ( 'NONE', #200, #9, #7, .T. ) ;
#75 = CC_DESIGN_PERSON_AND_ORGANIZATION_ASSIGNMENT ( #153, #197, ( #76 ) ) ;
#76 = SECURITY_CLASSIFICATION ( '', '', #171 ) ;
#77 = DATE_AND_TIME ( #151, #241 ) ;
#78 = LINE ( 'NONE', #103, #86 ) ;
#79 = APPROVAL_DATE_TIME ( #172, #148 ) ;
#80 = CARTESIAN_POINT ( 'NONE',  ( -3.100000000000000089, 0.000000000000000000, 1000.000000000000000 ) ) ;
#81 = VERTEX_POINT ( 'NONE', #80 ) ;
#82 = ADVANCED_FACE ( 'NONE', ( #102 ), #175, .T. ) ;
#83 = APPLICATION_CONTEXT ( 'configuration controlled 3d designs of mechanical parts and assemblies' ) ;
#84 = ORIENTED_EDGE ( 'NONE', *, *, #63, .F. ) ;
#85 = DIRECTION ( 'NONE',  ( 0.000000000000000000, 0.000000000000000000, 1.000000000000000000 ) ) ;
#86 = VECTOR ( 'NONE', #59, 1000.000000000000000 ) ;
#87 = DIRECTION ( 'NONE',  ( -0.000000000000000000, -0.000000000000000000, -1.000000000000000000 ) ) ;
#88 = DIRECTION ( 'NONE',  ( -1.000000000000000000, 0.000000000000000000, 0.000000000000000000 ) ) ;
#89 = FACE_OUTER_BOUND ( 'NONE', #132, .T. ) ;
#90 = ORIENTED_EDGE ( 'NONE', *, *, #30, .F. ) ;
#91 = EDGE_CURVE ( 'NONE', #81, #231, #119, .T. ) ;
#92 = CALENDAR_DATE ( 2023, 12, 2 ) ;
#93 = ORGANIZATION ( 'NEURÈENÝ', 'NEURÈENÝ', '' ) ;
#94 = PERSON_AND_ORGANIZATION ( #43, #93 ) ;
#95 = CC_DESIGN_DATE_AND_TIME_ASSIGNMENT ( #147, #47, ( #104 ) ) ;
#96 = DIRECTION ( 'NONE',  ( 1.000000000000000000, 0.000000000000000000, 0.000000000000000000 ) ) ;
#97 = DIRECTION ( 'NONE',  ( 0.000000000000000000, 0.000000000000000000, 1.000000000000000000 ) ) ;
#98 = DIRECTION ( 'NONE',  ( 0.000000000000000000, 0.000000000000000000, 1.000000000000000000 ) ) ;
#99 = PERSON_AND_ORGANIZATION ( #43, #93 ) ;
#100 = ADVANCED_FACE ( 'NONE', ( #6 ), #159, .T. ) ;
#101 = CC_DESIGN_APPROVAL ( #55, ( #104 ) ) ;
#102 = FACE_OUTER_BOUND ( 'NONE', #116, .T. ) ;
#103 = CARTESIAN_POINT ( 'NONE',  ( -6.000000000000000888, 0.000000000000000000, 5.000000000000000000 ) ) ;
#104 = PRODUCT_DEFINITION ( 'NEZNÁMÝ', '', #36, #51 ) ;
#105 = CARTESIAN_POINT ( 'NONE',  ( 0.000000000000000000, 0.000000000000000000, 1000.000000000000000 ) ) ;
#106 = FACE_OUTER_BOUND ( 'NONE', #150, .T. ) ;
#107 = DIRECTION ( 'NONE',  ( 0.000000000000000000, 0.000000000000000000, 1.000000000000000000 ) ) ;
#108 = AXIS2_PLACEMENT_3D ( 'NONE', #135, #97, #37 ) ;
#109 = PLANE ( 'NONE',  #230 ) ;
#110 = MANIFOLD_SOLID_BREP ( 'Pøidat vysunutím3', #145 ) ;
#111 = ADVANCED_FACE ( 'NONE', ( #240, #68 ), #205, .T. ) ;
#112 = CC_DESIGN_PERSON_AND_ORGANIZATION_ASSIGNMENT ( #99, #123, ( #36 ) ) ;
#113 = DIRECTION ( 'NONE',  ( 1.000000000000000000, 0.000000000000000000, 0.000000000000000000 ) ) ;
#114 = APPROVAL_DATE_TIME ( #28, #193 ) ;
#115 = CIRCLE ( 'NONE', #237, 3.100000000000000089 ) ;
#116 = EDGE_LOOP ( 'NONE', ( #20, #161, #154, #84 ) ) ;
#117 =( LENGTH_UNIT ( ) NAMED_UNIT ( * ) SI_UNIT ( .MILLI., .METRE. ) );
#118 = APPROVAL_STATUS ( 'not_yet_approved' ) ;
#119 = CIRCLE ( 'NONE', #14, 3.100000000000000089 ) ;
#120 = COORDINATED_UNIVERSAL_TIME_OFFSET ( 1, 0, .AHEAD. ) ;
#121 = ORIENTED_EDGE ( 'NONE', *, *, #91, .F. ) ;
#122 = CARTESIAN_POINT ( 'NONE',  ( -6.000000000000000888, 0.000000000000000000, 0.000000000000000000 ) ) ;
#123 = PERSON_AND_ORGANIZATION_ROLE ( 'design_supplier' ) ;
#124 =( GEOMETRIC_REPRESENTATION_CONTEXT ( 3 ) GLOBAL_UNCERTAINTY_ASSIGNED_CONTEXT ( ( #11 ) ) GLOBAL_UNIT_ASSIGNED_CONTEXT ( ( #117, #232, #54 ) ) REPRESENTATION_CONTEXT ( 'NONE', 'WORKASPACE' ) );
#125 = LINE ( 'NONE', #202, #3 ) ;
#126 = CARTESIAN_POINT ( 'NONE',  ( 6.000000000000000888, 7.347880794884120722E-16, 0.000000000000000000 ) ) ;
#127 = CARTESIAN_POINT ( 'NONE',  ( 3.100000000000000089, 3.796405077356793932E-16, 5.000000000000000000 ) ) ;
#128 = VERTEX_POINT ( 'NONE', #185 ) ;
#129 = PERSON_AND_ORGANIZATION ( #43, #93 ) ;
#130 = ORIENTED_EDGE ( 'NONE', *, *, #143, .T. ) ;
#131 = ADVANCED_FACE ( 'NONE', ( #40 ), #183, .T. ) ;
#132 = EDGE_LOOP ( 'NONE', ( #187, #170 ) ) ;
#133 = ORIENTED_EDGE ( 'NONE', *, *, #74, .F. ) ;
#134 = CC_DESIGN_SECURITY_CLASSIFICATION ( #76, ( #36 ) ) ;
#135 = CARTESIAN_POINT ( 'NONE',  ( 0.000000000000000000, 0.000000000000000000, 5.000000000000000000 ) ) ;
#136 = PERSON_AND_ORGANIZATION ( #43, #93 ) ;
#137 = CARTESIAN_POINT ( 'NONE',  ( 0.000000000000000000, 0.000000000000000000, 5.000000000000000000 ) ) ;
#138 = AXIS2_PLACEMENT_3D ( 'NONE', #139, #223, #24 ) ;
#139 = CARTESIAN_POINT ( 'NONE',  ( 0.000000000000000000, 0.000000000000000000, 5.000000000000000000 ) ) ;
#140 = ADVANCED_FACE ( 'NONE', ( #106 ), #4, .T. ) ;
#141 = AXIS2_PLACEMENT_3D ( 'NONE', #243, #26, #41 ) ;
#142 = CARTESIAN_POINT ( 'NONE',  ( -3.100000000000000089, 0.000000000000000000, 1000.000000000000000 ) ) ;
#143 = EDGE_CURVE ( 'NONE', #81, #207, #44, .T. ) ;
#144 = CC_DESIGN_PERSON_AND_ORGANIZATION_ASSIGNMENT ( #136, #60, ( #36 ) ) ;
#145 = CLOSED_SHELL ( 'NONE', ( #100, #82, #140, #111, #227, #131, #215 ) ) ;
#146 = APPROVAL_PERSON_ORGANIZATION ( #70, #55, #194 ) ;
#147 = DATE_AND_TIME ( #167, #149 ) ;
#148 = APPROVAL ( #198, 'NEURÈENÝ' ) ;
#149 = LOCAL_TIME ( 13, 9, 15.00000000000000000, #245 ) ;
#150 = EDGE_LOOP ( 'NONE', ( #251, #250, #236, #209 ) ) ;
#151 = CALENDAR_DATE ( 2023, 12, 2 ) ;
#152 = CARTESIAN_POINT ( 'NONE',  ( 0.000000000000000000, 0.000000000000000000, 1000.000000000000000 ) ) ;
#153 = PERSON_AND_ORGANIZATION ( #43, #93 ) ;
#154 = ORIENTED_EDGE ( 'NONE', *, *, #74, .T. ) ;
#155 = EDGE_CURVE ( 'NONE', #207, #213, #52, .T. ) ;
#156 = CIRCLE ( 'NONE', #46, 6.000000000000000888 ) ;
#157 = DIRECTION ( 'NONE',  ( -0.000000000000000000, -0.000000000000000000, -1.000000000000000000 ) ) ;
#158 = DIRECTION ( 'NONE',  ( 1.000000000000000000, 0.000000000000000000, -0.000000000000000000 ) ) ;
#159 = CYLINDRICAL_SURFACE ( 'NONE', #188, 3.100000000000000089 ) ;
#160 = APPROVAL_DATE_TIME ( #190, #55 ) ;
#161 = ORIENTED_EDGE ( 'NONE', *, *, #234, .T. ) ;
#162 = AXIS2_PLACEMENT_3D ( 'NONE', #192, #13, #96 ) ;
#163 = AXIS2_PLACEMENT_3D ( 'NONE', #220, #157, #88 ) ;
#164 = APPROVAL_STATUS ( 'not_yet_approved' ) ;
#165 = EDGE_LOOP ( 'NONE', ( #90, #133 ) ) ;
#166 = ORIENTED_EDGE ( 'NONE', *, *, #155, .T. ) ;
#167 = CALENDAR_DATE ( 2023, 12, 2 ) ;
#168 = APPLICATION_PROTOCOL_DEFINITION ( 'international standard', 'config_control_design', 1994, #83 ) ;
#169 = CIRCLE ( 'NONE', #108, 3.100000000000000089 ) ;
#170 = ORIENTED_EDGE ( 'NONE', *, *, #50, .T. ) ;
#171 = SECURITY_CLASSIFICATION_LEVEL ( 'unclassified' ) ;
#172 = DATE_AND_TIME ( #18, #217 ) ;
#173 = CARTESIAN_POINT ( 'NONE',  ( 3.100000000000000089, 3.796405077356793932E-16, 1000.000000000000000 ) ) ;
#174 = APPLICATION_CONTEXT ( 'configuration controlled 3d designs of mechanical parts and assemblies' ) ;
#175 = CYLINDRICAL_SURFACE ( 'NONE', #208, 6.000000000000000888 ) ;
#176 = CARTESIAN_POINT ( 'NONE',  ( 0.000000000000000000, 0.000000000000000000, 0.000000000000000000 ) ) ;
#177 = PRODUCT_DEFINITION_SHAPE ( 'NONE', 'NONE',  #104 ) ;
#178 = CARTESIAN_POINT ( 'NONE',  ( 0.000000000000000000, 0.000000000000000000, 5.000000000000000000 ) ) ;
#179 = CIRCLE ( 'NONE', #225, 6.000000000000000888 ) ;
#180 = AXIS2_PLACEMENT_3D ( 'NONE', #176, #201, #21 ) ;
#181 = DIRECTION ( 'NONE',  ( 0.000000000000000000, 0.000000000000000000, 1.000000000000000000 ) ) ;
#182 = PLANE ( 'NONE',  #203 ) ;
#183 = CYLINDRICAL_SURFACE ( 'NONE', #163, 3.100000000000000089 ) ;
#184 = APPROVAL_PERSON_ORGANIZATION ( #129, #193, #73 ) ;
#185 = CARTESIAN_POINT ( 'NONE',  ( -6.000000000000000888, 0.000000000000000000, 5.000000000000000000 ) ) ;
#186 = CARTESIAN_POINT ( 'NONE',  ( 0.000000000000000000, 0.000000000000000000, 0.000000000000000000 ) ) ;
#187 = ORIENTED_EDGE ( 'NONE', *, *, #91, .T. ) ;
#188 = AXIS2_PLACEMENT_3D ( 'NONE', #224, #87, #204 ) ;
#189 = ADVANCED_BREP_SHAPE_REPRESENTATION ( '8dc9', ( #110, #162 ), #124 ) ;
#190 = DATE_AND_TIME ( #92, #195 ) ;
#191 = ORIENTED_EDGE ( 'NONE', *, *, #1, .F. ) ;
#192 = CARTESIAN_POINT ( 'NONE',  ( 0.000000000000000000, 0.000000000000000000, 0.000000000000000000 ) ) ;
#193 = APPROVAL ( #164, 'NEURÈENÝ' ) ;
#194 = APPROVAL_ROLE ( '' ) ;
#195 = LOCAL_TIME ( 13, 9, 15.00000000000000000, #15 ) ;
#196 = ORIENTED_EDGE ( 'NONE', *, *, #33, .T. ) ;
#197 = PERSON_AND_ORGANIZATION_ROLE ( 'classification_officer' ) ;
#198 = APPROVAL_STATUS ( 'not_yet_approved' ) ;
#199 = CC_DESIGN_DATE_AND_TIME_ASSIGNMENT ( #77, #233, ( #76 ) ) ;
#200 = VERTEX_POINT ( 'NONE', #126 ) ;
#201 = DIRECTION ( 'NONE',  ( 0.000000000000000000, 0.000000000000000000, 1.000000000000000000 ) ) ;
#202 = CARTESIAN_POINT ( 'NONE',  ( 6.000000000000000888, 7.347880794884120722E-16, 5.000000000000000000 ) ) ;
#203 = AXIS2_PLACEMENT_3D ( 'NONE', #105, #181, #5 ) ;
#204 = DIRECTION ( 'NONE',  ( -1.000000000000000000, 0.000000000000000000, 0.000000000000000000 ) ) ;
#205 = PLANE ( 'NONE',  #72 ) ;
#206 = EDGE_LOOP ( 'NONE', ( #191, #121, #130, #166 ) ) ;
#207 = VERTEX_POINT ( 'NONE', #244 ) ;
#208 = AXIS2_PLACEMENT_3D ( 'NONE', #178, #254, #69 ) ;
#209 = ORIENTED_EDGE ( 'NONE', *, *, #30, .T. ) ;
#210 = MECHANICAL_CONTEXT ( 'NONE', #83, 'mechanical' ) ;
#211 = EDGE_LOOP ( 'NONE', ( #214, #31, #249, #53 ) ) ;
#212 = LINE ( 'NONE', #173, #34 ) ;
#213 = VERTEX_POINT ( 'NONE', #127 ) ;
#214 = ORIENTED_EDGE ( 'NONE', *, *, #50, .F. ) ;
#215 = ADVANCED_FACE ( 'NONE', ( #89 ), #182, .T. ) ;
#216 = PRODUCT ( '8dc9', '8dc9', '', ( #210 ) ) ;
#217 = LOCAL_TIME ( 13, 9, 15.00000000000000000, #58 ) ;
#218 = DIRECTION ( 'NONE',  ( 0.000000000000000000, 0.000000000000000000, 1.000000000000000000 ) ) ;
#219 = CC_DESIGN_PERSON_AND_ORGANIZATION_ASSIGNMENT ( #94, #248, ( #104 ) ) ;
#220 = CARTESIAN_POINT ( 'NONE',  ( 0.000000000000000000, 0.000000000000000000, 1000.000000000000000 ) ) ;
#221 = CARTESIAN_POINT ( 'NONE',  ( 0.000000000000000000, 0.000000000000000000, 5.000000000000000000 ) ) ;
#222 = DIRECTION ( 'NONE',  ( 1.000000000000000000, 0.000000000000000000, 0.000000000000000000 ) ) ;
#223 = DIRECTION ( 'NONE',  ( 0.000000000000000000, 0.000000000000000000, 1.000000000000000000 ) ) ;
#224 = CARTESIAN_POINT ( 'NONE',  ( 0.000000000000000000, 0.000000000000000000, 1000.000000000000000 ) ) ;
#225 = AXIS2_PLACEMENT_3D ( 'NONE', #2, #252, #62 ) ;
#226 = PERSON_AND_ORGANIZATION ( #43, #93 ) ;
#227 = ADVANCED_FACE ( 'NONE', ( #27 ), #109, .F. ) ;
#228 = COORDINATED_UNIVERSAL_TIME_OFFSET ( 1, 0, .AHEAD. ) ;
#229 = PERSON_AND_ORGANIZATION_ROLE ( 'design_owner' ) ;
#230 = AXIS2_PLACEMENT_3D ( 'NONE', #186, #239, #64 ) ;
#231 = VERTEX_POINT ( 'NONE', #38 ) ;
#232 =( NAMED_UNIT ( * ) PLANE_ANGLE_UNIT ( ) SI_UNIT ( $, .RADIAN. ) );
#233 = DATE_TIME_ROLE ( 'classification_date' ) ;
#234 = EDGE_CURVE ( 'NONE', #61, #200, #125, .T. ) ;
#235 = CC_DESIGN_APPROVAL ( #193, ( #36 ) ) ;
#236 = ORIENTED_EDGE ( 'NONE', *, *, #63, .T. ) ;
#237 = AXIS2_PLACEMENT_3D ( 'NONE', #152, #98, #32 ) ;
#238 = PRODUCT_RELATED_PRODUCT_CATEGORY ( 'detail', '', ( #216 ) ) ;
#239 = DIRECTION ( 'NONE',  ( 0.000000000000000000, 0.000000000000000000, 1.000000000000000000 ) ) ;
#240 = FACE_BOUND ( 'NONE', #45, .T. ) ;
#241 = LOCAL_TIME ( 13, 9, 15.00000000000000000, #120 ) ;
#242 = EDGE_CURVE ( 'NONE', #61, #128, #156, .T. ) ;
#243 = CARTESIAN_POINT ( 'NONE',  ( 0.000000000000000000, 0.000000000000000000, 5.000000000000000000 ) ) ;
#244 = CARTESIAN_POINT ( 'NONE',  ( -3.100000000000000089, 0.000000000000000000, 5.000000000000000000 ) ) ;
#245 = COORDINATED_UNIVERSAL_TIME_OFFSET ( 1, 0, .AHEAD. ) ;
#246 = ORIENTED_EDGE ( 'NONE', *, *, #39, .F. ) ;
#247 = CC_DESIGN_APPROVAL ( #148, ( #76 ) ) ;
#248 = PERSON_AND_ORGANIZATION_ROLE ( 'creator' ) ;
#249 = ORIENTED_EDGE ( 'NONE', *, *, #39, .T. ) ;
#250 = ORIENTED_EDGE ( 'NONE', *, *, #33, .F. ) ;
#251 = ORIENTED_EDGE ( 'NONE', *, *, #234, .F. ) ;
#252 = DIRECTION ( 'NONE',  ( 0.000000000000000000, 0.000000000000000000, 1.000000000000000000 ) ) ;
#253 = SHAPE_DEFINITION_REPRESENTATION ( #177, #189 ) ;
#254 = DIRECTION ( 'NONE',  ( -0.000000000000000000, -0.000000000000000000, -1.000000000000000000 ) ) ;
#255 = APPROVAL_ROLE ( '' ) ;
ENDSEC;
END-ISO-10303-21;
