ISO-10303-21;
HEADER;
FILE_DESCRIPTION (( 'STEP AP203' ),
    '1' );
FILE_NAME ('7b77.STEP',
    '2023-02-12T11:49:05',
    ( '' ),
    ( '' ),
    'SwSTEP 2.0',
    'SolidWorks 2019',
    '' );
FILE_SCHEMA (( 'CONFIG_CONTROL_DESIGN' ));
ENDSEC;

DATA;
#1 = APPROVAL ( #144, 'NEURÈENÝ' ) ;
#2 = DIRECTION ( 'NONE',  ( 1.000000000000000000, 0.000000000000000000, -0.000000000000000000 ) ) ;
#3 = APPROVAL_STATUS ( 'not_yet_approved' ) ;
#4 = CARTESIAN_POINT ( 'NONE',  ( 7.000000000000000000, 8.572527594031473190E-16, 5.000000000000000000 ) ) ;
#5 = ORIENTED_EDGE ( 'NONE', *, *, #155, .T. ) ;
#6 =( LENGTH_UNIT ( ) NAMED_UNIT ( * ) SI_UNIT ( .MILLI., .METRE. ) );
#7 = CYLINDRICAL_SURFACE ( 'NONE', #180, 4.000000000000000000 ) ;
#8 = VERTEX_POINT ( 'NONE', #53 ) ;
#9 = APPROVAL_DATE_TIME ( #105, #1 ) ;
#10 = CC_DESIGN_APPROVAL ( #200, ( #123 ) ) ;
#11 = CARTESIAN_POINT ( 'NONE',  ( 0.000000000000000000, 0.000000000000000000, 5.000000000000000000 ) ) ;
#12 = EDGE_LOOP ( 'NONE', ( #70, #109 ) ) ;
#13 = APPLICATION_PROTOCOL_DEFINITION ( 'international standard', 'config_control_design', 1994, #56 ) ;
#14 = DIRECTION ( 'NONE',  ( 0.000000000000000000, 0.000000000000000000, 1.000000000000000000 ) ) ;
#15 = CARTESIAN_POINT ( 'NONE',  ( 0.000000000000000000, 0.000000000000000000, 5.000000000000000000 ) ) ;
#16 = DIRECTION ( 'NONE',  ( 0.000000000000000000, 0.000000000000000000, 1.000000000000000000 ) ) ;
#17 = LOCAL_TIME ( 12, 49, 5.000000000000000000, #164 ) ;
#18 = ADVANCED_FACE ( 'NONE', ( #135, #79 ), #195, .T. ) ;
#19 = AXIS2_PLACEMENT_3D ( 'NONE', #203, #201, #102 ) ;
#20 = CC_DESIGN_PERSON_AND_ORGANIZATION_ASSIGNMENT ( #132, #207, ( #218 ) ) ;
#21 = CIRCLE ( 'NONE', #177, 4.000000000000000000 ) ;
#22 = ADVANCED_BREP_SHAPE_REPRESENTATION ( '7b77', ( #39, #246 ), #253 ) ;
#23 = CARTESIAN_POINT ( 'NONE',  ( 0.000000000000000000, 0.000000000000000000, 0.000000000000000000 ) ) ;
#24 = ORIENTED_EDGE ( 'NONE', *, *, #181, .T. ) ;
#25 = APPROVAL_STATUS ( 'not_yet_approved' ) ;
#26 = ADVANCED_FACE ( 'NONE', ( #163 ), #112, .T. ) ;
#27 = DIRECTION ( 'NONE',  ( -0.000000000000000000, -0.000000000000000000, -1.000000000000000000 ) ) ;
#28 = EDGE_LOOP ( 'NONE', ( #175, #129, #168, #148 ) ) ;
#29 = AXIS2_PLACEMENT_3D ( 'NONE', #130, #150, #153 ) ;
#30 = ORIENTED_EDGE ( 'NONE', *, *, #235, .T. ) ;
#31 = COORDINATED_UNIVERSAL_TIME_OFFSET ( 1, 0, .AHEAD. ) ;
#32 = ORIENTED_EDGE ( 'NONE', *, *, #167, .T. ) ;
#33 = PERSON_AND_ORGANIZATION ( #157, #242 ) ;
#34 = DIRECTION ( 'NONE',  ( -0.000000000000000000, -0.000000000000000000, -1.000000000000000000 ) ) ;
#35 = CIRCLE ( 'NONE', #29, 7.000000000000000000 ) ;
#36 = APPROVAL_DATE_TIME ( #158, #200 ) ;
#37 = VECTOR ( 'NONE', #34, 1000.000000000000000 ) ;
#38 = CARTESIAN_POINT ( 'NONE',  ( 0.000000000000000000, 0.000000000000000000, 5.000000000000000000 ) ) ;
#39 = MANIFOLD_SOLID_BREP ( 'Pøidat vysunutím3', #108 ) ;
#40 = EDGE_LOOP ( 'NONE', ( #46, #131, #30, #43 ) ) ;
#41 = DATE_TIME_ROLE ( 'classification_date' ) ;
#42 = CARTESIAN_POINT ( 'NONE',  ( -7.000000000000000000, 0.000000000000000000, 5.000000000000000000 ) ) ;
#43 = ORIENTED_EDGE ( 'NONE', *, *, #101, .F. ) ;
#44 = CALENDAR_DATE ( 2023, 12, 2 ) ;
#45 = LINE ( 'NONE', #252, #37 ) ;
#46 = ORIENTED_EDGE ( 'NONE', *, *, #220, .F. ) ;
#47 = AXIS2_PLACEMENT_3D ( 'NONE', #170, #214, #2 ) ;
#48 = DIRECTION ( 'NONE',  ( 1.000000000000000000, 0.000000000000000000, 0.000000000000000000 ) ) ;
#49 = DIRECTION ( 'NONE',  ( 1.000000000000000000, 0.000000000000000000, 0.000000000000000000 ) ) ;
#50 = ORIENTED_EDGE ( 'NONE', *, *, #101, .T. ) ;
#51 = DATE_TIME_ROLE ( 'creation_date' ) ;
#52 = CARTESIAN_POINT ( 'NONE',  ( 7.000000000000000000, 8.572527594031473190E-16, 0.000000000000000000 ) ) ;
#53 = CARTESIAN_POINT ( 'NONE',  ( 4.000000000000000000, 4.898587196589412829E-16, 200.0000000000000000 ) ) ;
#54 = ADVANCED_FACE ( 'NONE', ( #179 ), #255, .T. ) ;
#55 = DIRECTION ( 'NONE',  ( 1.000000000000000000, 0.000000000000000000, 0.000000000000000000 ) ) ;
#56 = APPLICATION_CONTEXT ( 'configuration controlled 3d designs of mechanical parts and assemblies' ) ;
#57 = CIRCLE ( 'NONE', #19, 4.000000000000000000 ) ;
#58 = CALENDAR_DATE ( 2023, 12, 2 ) ;
#59 = AXIS2_PLACEMENT_3D ( 'NONE', #90, #95, #75 ) ;
#60 = ORIENTED_EDGE ( 'NONE', *, *, #167, .F. ) ;
#61 = PERSON_AND_ORGANIZATION ( #157, #242 ) ;
#62 = ORIENTED_EDGE ( 'NONE', *, *, #181, .F. ) ;
#63 = PRODUCT ( '7b77', '7b77', '', ( #141 ) ) ;
#64 = CARTESIAN_POINT ( 'NONE',  ( -7.000000000000000000, 0.000000000000000000, 5.000000000000000000 ) ) ;
#65 = VERTEX_POINT ( 'NONE', #42 ) ;
#66 = DATE_AND_TIME ( #86, #186 ) ;
#67 = ADVANCED_FACE ( 'NONE', ( #84 ), #111, .F. ) ;
#68 = ORIENTED_EDGE ( 'NONE', *, *, #216, .F. ) ;
#69 = DIRECTION ( 'NONE',  ( -0.000000000000000000, -0.000000000000000000, -1.000000000000000000 ) ) ;
#70 = ORIENTED_EDGE ( 'NONE', *, *, #216, .T. ) ;
#71 = SHAPE_DEFINITION_REPRESENTATION ( #88, #22 ) ;
#72 = CIRCLE ( 'NONE', #204, 7.000000000000000000 ) ;
#73 = LINE ( 'NONE', #4, #103 ) ;
#74 = CC_DESIGN_PERSON_AND_ORGANIZATION_ASSIGNMENT ( #231, #78, ( #208 ) ) ;
#75 = DIRECTION ( 'NONE',  ( -1.000000000000000000, 0.000000000000000000, 0.000000000000000000 ) ) ;
#76 = CARTESIAN_POINT ( 'NONE',  ( 7.000000000000000000, 8.572527594031473190E-16, 5.000000000000000000 ) ) ;
#77 = APPROVAL_PERSON_ORGANIZATION ( #61, #1, #147 ) ;
#78 = PERSON_AND_ORGANIZATION_ROLE ( 'creator' ) ;
#79 = FACE_OUTER_BOUND ( 'NONE', #248, .T. ) ;
#80 = DATE_AND_TIME ( #44, #17 ) ;
#81 = DIRECTION ( 'NONE',  ( -1.000000000000000000, 0.000000000000000000, 0.000000000000000000 ) ) ;
#82 = VERTEX_POINT ( 'NONE', #52 ) ;
#83 = COORDINATED_UNIVERSAL_TIME_OFFSET ( 1, 0, .AHEAD. ) ;
#84 = FACE_OUTER_BOUND ( 'NONE', #172, .T. ) ;
#85 = VERTEX_POINT ( 'NONE', #232 ) ;
#86 = CALENDAR_DATE ( 2023, 12, 2 ) ;
#87 = APPLICATION_CONTEXT ( 'configuration controlled 3d designs of mechanical parts and assemblies' ) ;
#88 = PRODUCT_DEFINITION_SHAPE ( 'NONE', 'NONE',  #208 ) ;
#89 = DIRECTION ( 'NONE',  ( 1.000000000000000000, 0.000000000000000000, -0.000000000000000000 ) ) ;
#90 = CARTESIAN_POINT ( 'NONE',  ( 0.000000000000000000, 0.000000000000000000, 200.0000000000000000 ) ) ;
#91 = ORIENTED_EDGE ( 'NONE', *, *, #121, .F. ) ;
#92 = CARTESIAN_POINT ( 'NONE',  ( -4.000000000000000000, 0.000000000000000000, 200.0000000000000000 ) ) ;
#93 = CIRCLE ( 'NONE', #97, 4.000000000000000000 ) ;
#94 = CC_DESIGN_PERSON_AND_ORGANIZATION_ASSIGNMENT ( #33, #106, ( #123 ) ) ;
#95 = DIRECTION ( 'NONE',  ( -0.000000000000000000, -0.000000000000000000, -1.000000000000000000 ) ) ;
#96 = CARTESIAN_POINT ( 'NONE',  ( 0.000000000000000000, 0.000000000000000000, 0.000000000000000000 ) ) ;
#97 = AXIS2_PLACEMENT_3D ( 'NONE', #38, #184, #55 ) ;
#98 = VECTOR ( 'NONE', #247, 1000.000000000000000 ) ;
#99 = CARTESIAN_POINT ( 'NONE',  ( 0.000000000000000000, 0.000000000000000000, 0.000000000000000000 ) ) ;
#100 = DIRECTION ( 'NONE',  ( 0.000000000000000000, 0.000000000000000000, 1.000000000000000000 ) ) ;
#101 = EDGE_CURVE ( 'NONE', #65, #251, #209, .T. ) ;
#102 = DIRECTION ( 'NONE',  ( 1.000000000000000000, 0.000000000000000000, 0.000000000000000000 ) ) ;
#103 = VECTOR ( 'NONE', #145, 1000.000000000000000 ) ;
#104 = APPROVAL_PERSON_ORGANIZATION ( #205, #200, #190 ) ;
#105 = DATE_AND_TIME ( #58, #119 ) ;
#106 = PERSON_AND_ORGANIZATION_ROLE ( 'classification_officer' ) ;
#107 = DIRECTION ( 'NONE',  ( -0.000000000000000000, -0.000000000000000000, -1.000000000000000000 ) ) ;
#108 = CLOSED_SHELL ( 'NONE', ( #202, #189, #162, #18, #67, #26, #54 ) ) ;
#109 = ORIENTED_EDGE ( 'NONE', *, *, #227, .T. ) ;
#110 = PERSON_AND_ORGANIZATION_ROLE ( 'design_owner' ) ;
#111 = PLANE ( 'NONE',  #118 ) ;
#112 = CYLINDRICAL_SURFACE ( 'NONE', #59, 4.000000000000000000 ) ;
#113 = ORIENTED_EDGE ( 'NONE', *, *, #137, .F. ) ;
#114 = DIRECTION ( 'NONE',  ( 0.000000000000000000, 0.000000000000000000, 1.000000000000000000 ) ) ;
#115 = PRODUCT_RELATED_PRODUCT_CATEGORY ( 'detail', '', ( #63 ) ) ;
#116 = CARTESIAN_POINT ( 'NONE',  ( 0.000000000000000000, 0.000000000000000000, 200.0000000000000000 ) ) ;
#117 = UNCERTAINTY_MEASURE_WITH_UNIT (LENGTH_MEASURE( 1.000000000000000082E-05 ), #6, 'distance_accuracy_value', 'NONE');
#118 = AXIS2_PLACEMENT_3D ( 'NONE', #169, #114, #134 ) ;
#119 = LOCAL_TIME ( 12, 49, 5.000000000000000000, #221 ) ;
#120 = DIRECTION ( 'NONE',  ( 1.000000000000000000, 0.000000000000000000, 0.000000000000000000 ) ) ;
#121 = EDGE_CURVE ( 'NONE', #229, #82, #73, .T. ) ;
#122 =( NAMED_UNIT ( * ) PLANE_ANGLE_UNIT ( ) SI_UNIT ( $, .RADIAN. ) );
#123 = SECURITY_CLASSIFICATION ( '', '', #212 ) ;
#124 = PERSON_AND_ORGANIZATION_ROLE ( 'creator' ) ;
#125 = CYLINDRICAL_SURFACE ( 'NONE', #236, 7.000000000000000000 ) ;
#126 = ORIENTED_EDGE ( 'NONE', *, *, #245, .T. ) ;
#127 = APPROVAL_DATE_TIME ( #80, #138 ) ;
#128 = FACE_OUTER_BOUND ( 'NONE', #225, .T. ) ;
#129 = ORIENTED_EDGE ( 'NONE', *, *, #137, .T. ) ;
#130 = CARTESIAN_POINT ( 'NONE',  ( 0.000000000000000000, 0.000000000000000000, 5.000000000000000000 ) ) ;
#131 = ORIENTED_EDGE ( 'NONE', *, *, #121, .T. ) ;
#132 = PERSON_AND_ORGANIZATION ( #157, #242 ) ;
#133 = APPROVAL_PERSON_ORGANIZATION ( #250, #138, #143 ) ;
#134 = DIRECTION ( 'NONE',  ( 1.000000000000000000, 0.000000000000000000, -0.000000000000000000 ) ) ;
#135 = FACE_BOUND ( 'NONE', #233, .T. ) ;
#136 = DIRECTION ( 'NONE',  ( -0.000000000000000000, -0.000000000000000000, -1.000000000000000000 ) ) ;
#137 = EDGE_CURVE ( 'NONE', #8, #85, #45, .T. ) ;
#138 = APPROVAL ( #3, 'NEURÈENÝ' ) ;
#139 = DIRECTION ( 'NONE',  ( 1.000000000000000000, 0.000000000000000000, 0.000000000000000000 ) ) ;
#140 = CIRCLE ( 'NONE', #182, 7.000000000000000000 ) ;
#141 = MECHANICAL_CONTEXT ( 'NONE', #56, 'mechanical' ) ;
#142 = CIRCLE ( 'NONE', #154, 4.000000000000000000 ) ;
#143 = APPROVAL_ROLE ( '' ) ;
#144 = APPROVAL_STATUS ( 'not_yet_approved' ) ;
#145 = DIRECTION ( 'NONE',  ( -0.000000000000000000, -0.000000000000000000, -1.000000000000000000 ) ) ;
#146 = ORIENTED_EDGE ( 'NONE', *, *, #245, .F. ) ;
#147 = APPROVAL_ROLE ( '' ) ;
#148 = ORIENTED_EDGE ( 'NONE', *, *, #155, .F. ) ;
#149 =( NAMED_UNIT ( * ) SI_UNIT ( $, .STERADIAN. ) SOLID_ANGLE_UNIT ( ) );
#150 = DIRECTION ( 'NONE',  ( 0.000000000000000000, 0.000000000000000000, 1.000000000000000000 ) ) ;
#151 = VERTEX_POINT ( 'NONE', #174 ) ;
#152 = CC_DESIGN_APPROVAL ( #1, ( #208 ) ) ;
#153 = DIRECTION ( 'NONE',  ( 1.000000000000000000, 0.000000000000000000, 0.000000000000000000 ) ) ;
#154 = AXIS2_PLACEMENT_3D ( 'NONE', #171, #191, #49 ) ;
#155 = EDGE_CURVE ( 'NONE', #192, #151, #228, .T. ) ;
#156 = LOCAL_TIME ( 12, 49, 5.000000000000000000, #83 ) ;
#157 = PERSON ( 'NEURÈENÝ', 'NEURÈENÝ', 'NEURÈENÝ', ('NEURÈENÝ'), ('NEURÈENÝ'), ('NEURÈENÝ') ) ;
#158 = DATE_AND_TIME ( #230, #156 ) ;
#159 = DIRECTION ( 'NONE',  ( 1.000000000000000000, 0.000000000000000000, 0.000000000000000000 ) ) ;
#160 = CC_DESIGN_DATE_AND_TIME_ASSIGNMENT ( #66, #41, ( #123 ) ) ;
#161 = CC_DESIGN_SECURITY_CLASSIFICATION ( #123, ( #218 ) ) ;
#162 = ADVANCED_FACE ( 'NONE', ( #128 ), #125, .T. ) ;
#163 = FACE_OUTER_BOUND ( 'NONE', #249, .T. ) ;
#164 = COORDINATED_UNIVERSAL_TIME_OFFSET ( 1, 0, .AHEAD. ) ;
#165 = AXIS2_PLACEMENT_3D ( 'NONE', #224, #14, #89 ) ;
#166 = CARTESIAN_POINT ( 'NONE',  ( 0.000000000000000000, 0.000000000000000000, 200.0000000000000000 ) ) ;
#167 = EDGE_CURVE ( 'NONE', #151, #85, #142, .T. ) ;
#168 = ORIENTED_EDGE ( 'NONE', *, *, #254, .T. ) ;
#169 = CARTESIAN_POINT ( 'NONE',  ( 0.000000000000000000, 0.000000000000000000, 0.000000000000000000 ) ) ;
#170 = CARTESIAN_POINT ( 'NONE',  ( 0.000000000000000000, 0.000000000000000000, 5.000000000000000000 ) ) ;
#171 = CARTESIAN_POINT ( 'NONE',  ( 0.000000000000000000, 0.000000000000000000, 5.000000000000000000 ) ) ;
#172 = EDGE_LOOP ( 'NONE', ( #146, #197 ) ) ;
#173 = APPLICATION_PROTOCOL_DEFINITION ( 'international standard', 'config_control_design', 1994, #87 ) ;
#174 = CARTESIAN_POINT ( 'NONE',  ( -4.000000000000000000, 0.000000000000000000, 5.000000000000000000 ) ) ;
#175 = ORIENTED_EDGE ( 'NONE', *, *, #227, .F. ) ;
#176 = DIRECTION ( 'NONE',  ( -1.000000000000000000, 0.000000000000000000, 0.000000000000000000 ) ) ;
#177 = AXIS2_PLACEMENT_3D ( 'NONE', #116, #244, #159 ) ;
#178 = AXIS2_PLACEMENT_3D ( 'NONE', #15, #107, #176 ) ;
#179 = FACE_OUTER_BOUND ( 'NONE', #12, .T. ) ;
#180 = AXIS2_PLACEMENT_3D ( 'NONE', #166, #136, #215 ) ;
#181 = EDGE_CURVE ( 'NONE', #65, #229, #35, .T. ) ;
#182 = AXIS2_PLACEMENT_3D ( 'NONE', #239, #100, #120 ) ;
#183 = CC_DESIGN_DATE_AND_TIME_ASSIGNMENT ( #196, #51, ( #208 ) ) ;
#184 = DIRECTION ( 'NONE',  ( 0.000000000000000000, 0.000000000000000000, 1.000000000000000000 ) ) ;
#185 = DIRECTION ( 'NONE',  ( 1.000000000000000000, 0.000000000000000000, 0.000000000000000000 ) ) ;
#186 = LOCAL_TIME ( 12, 49, 5.000000000000000000, #198 ) ;
#187 = ORIENTED_EDGE ( 'NONE', *, *, #220, .T. ) ;
#188 = CALENDAR_DATE ( 2023, 12, 2 ) ;
#189 = ADVANCED_FACE ( 'NONE', ( #213 ), #206, .T. ) ;
#190 = APPROVAL_ROLE ( '' ) ;
#191 = DIRECTION ( 'NONE',  ( 0.000000000000000000, 0.000000000000000000, 1.000000000000000000 ) ) ;
#192 = VERTEX_POINT ( 'NONE', #92 ) ;
#193 = PERSON_AND_ORGANIZATION ( #157, #242 ) ;
#194 = CARTESIAN_POINT ( 'NONE',  ( -4.000000000000000000, 0.000000000000000000, 200.0000000000000000 ) ) ;
#195 = PLANE ( 'NONE',  #47 ) ;
#196 = DATE_AND_TIME ( #188, #199 ) ;
#197 = ORIENTED_EDGE ( 'NONE', *, *, #235, .F. ) ;
#198 = COORDINATED_UNIVERSAL_TIME_OFFSET ( 1, 0, .AHEAD. ) ;
#199 = LOCAL_TIME ( 12, 49, 5.000000000000000000, #31 ) ;
#200 = APPROVAL ( #25, 'NEURÈENÝ' ) ;
#201 = DIRECTION ( 'NONE',  ( 0.000000000000000000, 0.000000000000000000, 1.000000000000000000 ) ) ;
#202 = ADVANCED_FACE ( 'NONE', ( #234 ), #7, .T. ) ;
#203 = CARTESIAN_POINT ( 'NONE',  ( 0.000000000000000000, 0.000000000000000000, 200.0000000000000000 ) ) ;
#204 = AXIS2_PLACEMENT_3D ( 'NONE', #99, #241, #185 ) ;
#205 = PERSON_AND_ORGANIZATION ( #157, #242 ) ;
#206 = CYLINDRICAL_SURFACE ( 'NONE', #178, 7.000000000000000000 ) ;
#207 = PERSON_AND_ORGANIZATION_ROLE ( 'design_supplier' ) ;
#208 = PRODUCT_DEFINITION ( 'NEZNÁMÝ', '', #218, #238 ) ;
#209 = LINE ( 'NONE', #64, #98 ) ;
#210 = AXIS2_PLACEMENT_3D ( 'NONE', #96, #16, #139 ) ;
#211 = ORIENTED_EDGE ( 'NONE', *, *, #254, .F. ) ;
#212 = SECURITY_CLASSIFICATION_LEVEL ( 'unclassified' ) ;
#213 = FACE_OUTER_BOUND ( 'NONE', #40, .T. ) ;
#214 = DIRECTION ( 'NONE',  ( 0.000000000000000000, 0.000000000000000000, 1.000000000000000000 ) ) ;
#215 = DIRECTION ( 'NONE',  ( -1.000000000000000000, 0.000000000000000000, 0.000000000000000000 ) ) ;
#216 = EDGE_CURVE ( 'NONE', #192, #8, #21, .T. ) ;
#217 = CIRCLE ( 'NONE', #210, 7.000000000000000000 ) ;
#218 = PRODUCT_DEFINITION_FORMATION_WITH_SPECIFIED_SOURCE ( 'LIBOVOLNÝ', '', #63, .NOT_KNOWN. ) ;
#219 = CARTESIAN_POINT ( 'NONE',  ( -7.000000000000000000, 0.000000000000000000, 0.000000000000000000 ) ) ;
#220 = EDGE_CURVE ( 'NONE', #229, #65, #140, .T. ) ;
#221 = COORDINATED_UNIVERSAL_TIME_OFFSET ( 1, 0, .AHEAD. ) ;
#222 = PERSON_AND_ORGANIZATION ( #157, #242 ) ;
#223 = CC_DESIGN_APPROVAL ( #138, ( #218 ) ) ;
#224 = CARTESIAN_POINT ( 'NONE',  ( 0.000000000000000000, 0.000000000000000000, 200.0000000000000000 ) ) ;
#225 = EDGE_LOOP ( 'NONE', ( #91, #62, #50, #126 ) ) ;
#226 = DIRECTION ( 'NONE',  ( 0.000000000000000000, 0.000000000000000000, 1.000000000000000000 ) ) ;
#227 = EDGE_CURVE ( 'NONE', #8, #192, #57, .T. ) ;
#228 = LINE ( 'NONE', #194, #243 ) ;
#229 = VERTEX_POINT ( 'NONE', #76 ) ;
#230 = CALENDAR_DATE ( 2023, 12, 2 ) ;
#231 = PERSON_AND_ORGANIZATION ( #157, #242 ) ;
#232 = CARTESIAN_POINT ( 'NONE',  ( 4.000000000000000000, 4.898587196589412829E-16, 5.000000000000000000 ) ) ;
#233 = EDGE_LOOP ( 'NONE', ( #60, #211 ) ) ;
#234 = FACE_OUTER_BOUND ( 'NONE', #28, .T. ) ;
#235 = EDGE_CURVE ( 'NONE', #82, #251, #72, .T. ) ;
#236 = AXIS2_PLACEMENT_3D ( 'NONE', #11, #27, #81 ) ;
#237 = CC_DESIGN_PERSON_AND_ORGANIZATION_ASSIGNMENT ( #193, #110, ( #63 ) ) ;
#238 = DESIGN_CONTEXT ( 'detailed design', #87, 'design' ) ;
#239 = CARTESIAN_POINT ( 'NONE',  ( 0.000000000000000000, 0.000000000000000000, 5.000000000000000000 ) ) ;
#240 = CC_DESIGN_PERSON_AND_ORGANIZATION_ASSIGNMENT ( #222, #124, ( #218 ) ) ;
#241 = DIRECTION ( 'NONE',  ( 0.000000000000000000, 0.000000000000000000, 1.000000000000000000 ) ) ;
#242 = ORGANIZATION ( 'NEURÈENÝ', 'NEURÈENÝ', '' ) ;
#243 = VECTOR ( 'NONE', #69, 1000.000000000000000 ) ;
#244 = DIRECTION ( 'NONE',  ( 0.000000000000000000, 0.000000000000000000, 1.000000000000000000 ) ) ;
#245 = EDGE_CURVE ( 'NONE', #251, #82, #217, .T. ) ;
#246 = AXIS2_PLACEMENT_3D ( 'NONE', #23, #226, #48 ) ;
#247 = DIRECTION ( 'NONE',  ( -0.000000000000000000, -0.000000000000000000, -1.000000000000000000 ) ) ;
#248 = EDGE_LOOP ( 'NONE', ( #24, #187 ) ) ;
#249 = EDGE_LOOP ( 'NONE', ( #113, #68, #5, #32 ) ) ;
#250 = PERSON_AND_ORGANIZATION ( #157, #242 ) ;
#251 = VERTEX_POINT ( 'NONE', #219 ) ;
#252 = CARTESIAN_POINT ( 'NONE',  ( 4.000000000000000000, 4.898587196589412829E-16, 200.0000000000000000 ) ) ;
#253 =( GEOMETRIC_REPRESENTATION_CONTEXT ( 3 ) GLOBAL_UNCERTAINTY_ASSIGNED_CONTEXT ( ( #117 ) ) GLOBAL_UNIT_ASSIGNED_CONTEXT ( ( #6, #122, #149 ) ) REPRESENTATION_CONTEXT ( 'NONE', 'WORKASPACE' ) );
#254 = EDGE_CURVE ( 'NONE', #85, #151, #93, .T. ) ;
#255 = PLANE ( 'NONE',  #165 ) ;
ENDSEC;
END-ISO-10303-21;
